» » »

Muse, City Of Delusion Tabs (ver.3)

Artists:  A B C D E F G H I J K L M N O P Q R S T U V W X Y Z # 

City Of Delusion Tabs (ver.3)

Muse Tabs
Rating:
0/5 (0 votes)
City Of Delusion lessons Tabs too difficult? Try these video lessons and learn fast
                City of Delusion-Muse

Notes:

-You need to listen to the song for a lot of the strumming patterns

-When you repeat the 1st Violin Interlude), the first chord is actually played about a 
times

-If you cant hear the guitar, especially during the violin interludes, I think its
along with the vocals

-The last note actually starts to tremolo pick on fret 5 and then slides up to the 10th 
on E

-Intro-:

E|--x--
B|--x--
G|--x-- x8
D|--x--
A|--x--
E|--x--

E|--1--------|
B|--3--2-----|
G|--2--2-----|
D|-----------|
A|-----------|
E|-----------|

-First Verse-:

(4x) Stay...
E|--1--------|
B|--3--2-----|
G|--2--2-----| x7
D|-----------|
A|-----------|
E|-----------|

Build a fortress...
E|---1---3---1---6---5---3---1-----------3-------3---3---------------1-------|
B|---3---2---3---8---6---2---3---2---2---3---2---3---2---2---3---2---3---2---|
G|---2---2---2---7---7---2---2---2---2---3---2---3---3-------2-------2---2---|
D|-----------------------------------2---3---2---3-------2---2---2-----------|
A|---------------------------------------------------------------------------|
E|---------------------------------------------------------------------------|

-Repeat First Verse-

-Violin Interlude 1-:

E|--1--------|
B|--3--2-----|
G|--2--2-----| x2
D|-----------|
A|-----------|
E|-----------|

E|--1--1--1--|
B|--3--3--3--|
G|--2--2--2--|
D|-----------|
A|-----------|
E|-----------|
-Chorus-:

Destroy this...
E|--1--1--1-----------1--1--1--1-----------3--3--3--1--1--1-----------1--1--1-|
B|--1--1--1--2--2--2--3--3--3--3--2--2--2--3--3--3--1--1--1--2--2--2--3--3--3-|
G|--2--2--2--2--2--2--2--2--2--2--2--2--2--3--3--3--2--2--2-----------2--2--2-|
D|--3--3--3--2--2--2--------------2--2--2-----------3--3--3--2--2--2----------|
A|-----------------------------------------x--x--x----------------------------|
E|-----------------------------------------3--3--3----------------------------|

-Violin Interlude 2-:

I will avenge...
E|--5-5-5--5-5-|
B|-------------|
G|-------------| x4
D|-------------|
A|-------------|
E|-------------|

Justify my reasons...
E|------------------------|
B|--10--8-----------------|
G|---------10--9/10--9/2--|
D|------------------------|
A|------------------------|
E|------------------------|

Blame...
E|--5--
B|-----
G|----- (random picking)
D|-----
A|-----
E|-----

-Bass Interlude-:

Do not deny...
E|--5-5-5--5-5--|
B|--------------|
G|--------------| x7
D|--------------|
A|--------------|
E|--------------|

E|--1--1--1--|
B|--3--3--3--|
G|--2--2--2--|
D|-----------|
A|-----------|
E|-----------|

-Repeat Chorus-
-Repeat Violin Interlude 2-
-TRUMPET SOLO-
(repeat Violin Interlude 1)
-Repeat Chorus-
-Repeat Violin Interlude 2-

P.S.
This is my first tab and I've only ever owned an acoustic guitar, so, if there are wrong
please tell me! And I tried my best to make this tab, so haters to the left.
            

comments powered by Disqus
↑ Back to top | Muse Tabs for City Of Delusion. Lyrics for acoustic guitar and electric guitar. Tablatures and chords are parodies/interpretations of the original songs. You may use it for private study, scholarship, research or language learning purposes only