» » »

Muse, Cave Bass tabs (ver.4)

Artists:  A B C D E F G H I J K L M N O P Q R S T U V W X Y Z # 

Cave Bass tabs (ver.4)

Muse Tabs
 Rating:
4/5 (4 votes)
Cave lessons Tabs too difficult? Try these video lessons and learn fast
1
                -------------------------------------------------------------------------------
			         CAVE - Muse
-------------------------------------------------------------------------------


Tuning: EADG

Intro x1
G|--------------------------5h777-5h777--------------------------------------|
D|-00000-00000-00000-00000---------------------------------------------------|
A|---------------------------------------------------------------------------|
E|---------------------------------------------------------------------------|

Main Riff x8		Variation of main riff
G|----------------|     G-------------------|
D|-0000h30--------|     D--0~00h30----------|
A|-----------34---|     A------------34-----|
E|---------45-----|     E----------45-------|

End Main Riff x1
G|--5h777--5h777-------|
D|---------------------|
A|---------------------|
E|---------------------|

Main Riff x4

Chorus Prelude
G|----------2------3------5----00(12)0-----10------9-----7~------------------|
D|---------------------------------------------------------------------------|
A|---5----00-0---11-1---33-3-------------88--8---77-7--66--------------------|
E|-33-3----------------------------------------------------------------------|

Main Riff x4
End Main Riff x1
Main Ruff x4
Chorus Prelude x1

Chorus x3
G|-------------------------------------------------------|
D|-00000000----------------------------------------------|
A|-------------------------------------------------------|
E|---------22222222-33333333-33333333--------------------|

Repeat entire song all over again ^^

Throughout 3:18 - 4:05, starting softly:
G|---------------------------------------------------------------------------|
D|-0000-00000-00000-etc------------------------------------------------------|
A|---------------------------------------------------------------------------|
E|---------------------------------------------------------------------------|

4:05 x2
G|---------------------------------7-----------------------------------------|
D|-0--0--0-0-000-------------------------------------------------------------|
A|---------------1--1--1-1-111-1/5--5~4~3~2~-2-2-2-2222----------------------|
E|---------------------------------------------------------------------------|

End on:
G|-----------|
D|-----------|
A|-2/5~------|
E|-----------|

| /  slide up
| \  slide down
| h  hammer-on
| p  pull-off
| ~  vibrato
| +  harmonic
| x  Mute note
===============================================================================
            
Submit corrections

comments powered by Disqus
↑ Back to top | Muse Bass for Cave. Lyrics for acoustic guitar and electric guitar. 1 Tablatures and chords are parodies/interpretations of the original songs. You may use it for private study, scholarship, research or language learning purposes only