» » »

Muse, Cave Tabs (ver.2)

Artists:  A B C D E F G H I J K L M N O P Q R S T U V W X Y Z # 

Cave Tabs (ver.2)

Muse Tabs
 Rating:
4/5 (4 votes)
Cave lessons Tabs too difficult? Try these video lessons and learn fast
                Band - Muse
Song - Cave live
Dvd - Hullabaloo live
Guitarist - Matt Bellamy

/ - Slide up the neck (towards a note usually)
\ - Slide down the neck (usually after a note)
bu - bend up to noted pitch
bd - pre-bend, bend down to note after bending up
tr - trill
x - mute
(0) - play behind the nut
~ - Vibrato
* - Harmonic

This is Cave from the excellent Hullabaloo DVD by Muse.
There's lots of improvisation in this compared to the Showbiz version!
The Slides dont have to be added in but it sounds better so see what 
you think!
There is some extra notes during the last chords of the chorus that
he plays but i haven't figured them out yet.
The open string changes between the Chords are a rough guide as to what 
happens to your fingers whan you change. Sort of an automatic reaction.
And by the way 77 is not the 77th fret its just two sevens played very 
quickly together.
Have fun. 

Distortion till ending
e |------------------------------------------------------------------|
B |------------------------------------------------------------------|
G |----------------7-7\---------------7-7\------------7-7\-----------|
D |-----/6-6-6-6-6---------/6-6-6-6-6-------6-6-6-6-6----------------|
A |------------------------------------------------------------------|
E |------------------------------------------------------------------|

e |------------------------------------------------------------------|
B |------------------------------------------------------------------|
G |------------------7-7\--------------9bu10--10bd9\-----------------|
D |-----/6-6-6-6-6----------/6-6-6-6-6-------------------------------|
A |------------------------------------------------------------------|
E |------------------------------------------------------------------|

e |------------------------------------------------------------------|
B |------------------------------------------------------------------|
G |----------------9bu10--10bd9\--------------9bu10--10bd9\----------|
D |-----/6-6-6-6-6-----------------/6-6-6-6-6------------------------|
A |------------------------------------------------------------------|
E |------------------------------------------------------------------|

e |------------------------------------------------------------------|
B |------------------------6--------------------------6--------------|
G |-----------------9bu10----7-------------------7-77---7------------|
D |-----/6-6-6-6-6-------------6-7---/6-6-6-6-6-----------6-7--------|
A |------------------------------------------------------------------|
E |------------------------------------------------------------------|

e |------------------------------------------------------------------|
B |------------------------6--------------------------6--------------|
G |-----------------7-77-----7-------------------7-77---7------------|
D |-----/6-6-6-6-6-------------6-7---/6-6-6-6-6-----------6-7--------|
A |------------------------------------------------------------------|
E |------------------------------------------------------------------|

e |-------------------------------------------13-13-10-10------------|
B |-----------------------6-------9-9-9-9-9-9-------------9-9-10-10--|
G |-----------------7-77----7----------------------------------------|
D |-----/6-6-6-6-6------------6/-------------------------------------|
A |------------------------------------------------------------------|
E |------------------------------------------------------------------|

e |--------------13-13-10-10-----------------------------------------|
B |-9-9-9-9-9-9---------------9-9-10-10--x3--------------------------|
G |------------------------------------------------------------------|
D |------------------------------------------------------------------|
A |------------------------------------------------------------------|
E |------------------------------------------------------------------|

e |------------------------------------------------------------------|
B |---3--------------------------------------------------------------|
G |---2--let ring----------------------------------------------------|
D |---0--------------------------------------------------------------|
A |---0--------------------------------------------------------------|
E |------------------------------------------------------------------|

e |------------------------------------------------------------------|
B |------------------------------------------------------------------|
G |------------------------------------------------------------------|
D |------5------7------8-----10------5-----3------2-x----------------|
A |-------------------------------------------------x-6-6-6----------|
E |--3-3----5-5----6-6---8-8-----3-3---1-1----0-0---x-4-4-4----------|

e |------------------------------------------------------------------|
B |------------------------6--------------------------6--------------|
G |-----------------7-77-----7-------------------7-77---7------------|
D |-----/6-6-6-6-6-------------6-7---/6-6-6-6-6-----------6-7--------|
A |------------------------------------------------------------------|
E |------------------------------------------------------------------|

e |------------------------------------------------------------------|
B |------------------------6--------------------------6--------------|
G |-----------------7-77-----7-------------------7-77---7------------|
D |-----/6-6-6-6-6-------------6-7---/6-6-6-6-6-----------6-7--------|
A |------------------------------------------------------------------|
E |------------------------------------------------------------------|

e |------------------------------------------------------------------|
B |---3--------------------------------------------------------------|
G |---2--let ring----------------------------------------------------|
D |---0--------------------------------------------------------------|
A |---0--------------------------------------------------------------|
E |------------------------------------------------------------------|

e |------------------------------------------------------------------|
B |------------------------------------------------------------------|
G |--------------------------------------------x-x-x-----------------|
D |------5------7------8-----10----------------x-x-x-----------------|
A |--------------------------------2.5*--------x-x-x-----------------|
E |--3-3----5-5----6-6---8-8-------------------x-x-x-----------------|

e |--1-1-1-1-1-1-0--------------------3--3-3-3--3-3-3--3-3-----------|
B |--3-3-3-3-3-3-3--3--3-3-3--3-3--3--3--3-3-3--3-3-3--3-3--3--------|
G |--2-2-2-2-2-2-2--2--2-2-2--2-2--0--0--0-0-0--0-0-0--0-0--0--------|
D |--0-0-0-0-0-0-0--0--0-0-0--0-0--0--0--0-0-0--0-0-0--0-0--0--------|
A |--------------0--0--0-0-0--0-0--0--2--2-2-2--2-2-2--2-2--0--------|
E |-----------------2--2-2-2--2-2-----3--3-3-3--3-3-3--3-3-----------|

e |--1-1-1-1-1-1-0--------------------3--3-3-3--3-3-3--3-3-----------|
B |--3-3-3-3-3-3-3--3--3-3-3--3-3--3--3--3-3-3--3-3-3--3-3--3--------|
G |--2-2-2-2-2-2-2--2--2-2-2--2-2--0--0--0-0-0--0-0-0--0-0--0--------|
D |--0-0-0-0-0-0-0--0--0-0-0--0-0--0--0--0-0-0--0-0-0--0-0--0--------|
A |--------------0--0--0-0-0--0-0--0--2--2-2-2--2-2-2--2-2--0--------|
E |-----------------2--2-2-2--2-2-----3--3-3-3--3-3-3--3-3-----------|

e |--1-1-1-1-1-1-0--------------------3--3-3-3--3-3-3--3-3-----------|
B |--3-3-3-3-3-3-3--3--3-3-3--3-3--3--3--3-3-3--3-3-3--3-3--3--------|
G |--2-2-2-2-2-2-2--2--2-2-2--2-2--0--0--0-0-0--0-0-0--0-0--0--------|
D |--0-0-0-0-0-0-0--0--0-0-0--0-0--0--0--0-0-0--0-0-0--0-0--0--------|
A |--------------0--0--0-0-0--0-0--0--2--2-2-2--2-2-2--2-2--0--------|
E |-----------------2--2-2-2--2-2-----3--3-3-3--3-3-3--3-3-----------|

e |--1-1-1-1-1-1-0--------------------3--3-3-3--3-3-3--3-3-----------|
B |--3-3-3-3-3-3-3--3--3-3-3--3-3--3--3--3-3-3--3-3-3--3-3--3--------|
G |--2-2-2-2-2-2-2--2--2-2-2--2-2--0--0--0-0-0--0-0-0--0-0--0--------|
D |--0-0-0-0-0-0-0--0--0-0-0--0-0--0--0--0-0-0--0-0-0--0-0--0--------|
A |--------------0--0--0-0-0--0-0--0--2--2-2-2--2-2-2--2-2--0--------|
E |-----------------2--2-2-2--2-2-----3--3-3-3--3-3-3--3-3-----------|

e |------------------------------------------------------------------|
B |--------------------------------------------------6---------------|
G |---(0)-(0)-(0)-------/12tr14---/10tr12---///9bu10---7-------------|
D |------------------------------------------------------6-7---------|
A |------------------------------------------------------------------|
E |------------------------------------------------------------------|

e |------------------------------------------------------------------|
B |------------------------6--------------------------6--------------|
G |-----------------7-77-----7-------------------7-77---7------------|
D |-----/6-6-6-6-6-------------6-7---/6-6-6-6-6-----------6-7--------|
A |------------------------------------------------------------------|
E |------------------------------------------------------------------|

e |------------------------------------------------------------------|
B |------------------------6--------------------------6--------------|
G |-----------------7-77-----7-------------------7-77---7------------|
D |-----/6-6-6-6-6-------------6-7---/6-6-6-6-6-----------6-7--------|
A |------------------------------------------------------------------|
E |------------------------------------------------------------------|

e |------------------------------------------------------------------|
B |------------------------------------------------------------------|
G |-----5tr7----and then as the accending octaves start move-to..----| 
D |------------------------------------------------------------------|
A |------------------------------------------------------------------|
E |------------------------------------------------------------------|

e |------8tr10-------------------------------------------------------|
B |-------------0r use a whammy set----------------------------------|
G |--------------one octave up and-----------------------------------| 
D |-------------play the before trill--------------------------------|
A |------------------------------------------------------------------|
E |------------------------------------------------------------------|

e |------------------------------------------------------------------|
B |------------------------------------------------------------------|
G |------------------------------------------------------------------|
D |--------------3---------------------3-----------------------------|
A |----5-5-5-5-5---5-----3-4-5-5-5-5-5---5-----3-4-------------------|
E |------------------3-4-------------------3-4-----------------------|

e |------------------------------------------------------------------|
B |------------------------------------------------------------------|
G |------------------------------------------------------------------|
D |--------------3---------------------3-----------------------------|
A |----5-5-5-5-5---5-----3-4-5-5-5-5-5---5-----3-4-------------------|
E |------------------3-4-------------------3-4-----------------------|

e |------------------------------------------------------------------|
B |---3\--------------------------xxx-3\----feedback noise-----------|
G |---2\--------------------------xxx-2\-----------------------------|
D |---0\--------------------------xxx-0\-----------------------------|
A |---0\--------------------------xxx-0\-----------------------------|
E |------------------------------------------------------------------|

e |--1-1-1-1-1-1-0--------------------3--3-3-3--3-3-3--3-3-----------|
B |--3-3-3-3-3-3-3--3--3-3-3--3-3--3--3--3-3-3--3-3-3--3-3--3--------|
G |--2-2-2-2-2-2-2--2--2-2-2--2-2--0--0--0-0-0--0-0-0--0-0--0--------|
D |--0-0-0-0-0-0-0--0--0-0-0--0-0--0--0--0-0-0--0-0-0--0-0--0--------|
A |--------------0--0--0-0-0--0-0--0--2--2-2-2--2-2-2--2-2--0--------|
E |-----------------2--2-2-2--2-2-----3--3-3-3--3-3-3--3-3-----------|

e |--1-1-1-1-1-1-0-------------------/4--3--2---0--------------------|
B |--3-3-3-3-3-3-3--3--3-3-3--3-3------------------------------------|
G |--2-2-2-2-2-2-2--2--2-2-2--2-2---/4--3--2--1-0---xxxx/\-----------|
D |--0-0-0-0-0-0-0--0--0-0-0--0-0-------------------xxxx/\-----------|
A |--------------0--0--0-0-0--0-0-------------------xxxx/\-----------|
E |-----------------2--2-2-2--2-2-------------------xxxx/\-----------|

e |--1-1-1-1-1-1-0--------------------3--3-3-3--3-3-3--3-3-----------|
B |--3-3-3-3-3-3-3--3--3-3-3--3-3--3--3--3-3-3--3-3-3--3-3--3--------|
G |--2-2-2-2-2-2-2--2--2-2-2--2-2--0--0--0-0-0--0-0-0--0-0--0--------|
D |--0-0-0-0-0-0-0--0--0-0-0--0-0--0--0--0-0-0--0-0-0--0-0--0--------|
A |--------------0--0--0-0-0--0-0--0--2--2-2-2--2-2-2--2-2--0--------|
E |-----------------2--2-2-2--2-2-----3--3-3-3--3-3-3--3-3-----------|

e |--1-1-1-1-1-1-0--------------------3--3-3-3--3-3-3--3-3-----------|
B |--3-3-3-3-3-3-3--3--3-3-3--3-3--3--3--3-3-3--3-3-3--3-3--3--------|
G |--2-2-2-2-2-2-2--2--2-2-2--2-2--0--0--0-0-0--0-0-0--0-0--0--------|
D |--0-0-0-0-0-0-0--0--0-0-0--0-0--0--0--0-0-0--0-0-0--0-0--0--------|
A |--------------0--0--0-0-0--0-0--0--2--2-2-2--2-2-2--2-2--0--------|
E |-----------------2--2-2-2--2-2-----3--3-3-3--3-3-3--3-3-----------|

e |------------------------------------------------------------------|
B |---3--------------------------------------------------------------|
G |---2--let ring----------------------------------------------------|
D |---0--------------------------------------------------------------|
A |---0--------------------------------------------------------------|
E |------------------------------------------------------------------|

Clean Sound Here... (on piano in studio version, guitar live)
e |------------------------------------------------------------------|
B |------10---8----7----------(re-pick bent note)--------------------|
G |---7-----7----7---7-9-7-9-7-9bu10-10-10-10-10-10-10bd9-7-7--------|
D |------------------------------------------------------------------|
A |------------------------------------------------------------------|
E |------------------------------------------------------------------|

e |------------------------------------------------------------------|
B |--7-------7----5----4-----4~~~/5-5-5/7-7-7-7/8-8-8----------------|
G |-----7-7----7-----6----4------------------------------------------|
D |------------------------------------------------------------------|
A |------------------------------------------------------------------|
E |------------------------------------------------------------------|

e |------------------------------------------------------------------|
B |------10---8----7----------(re-pick bent note)--------------------|
G |---7-----7----7---7-9-7-9-7-9bu10-(10-10-10-10-10)-10bd9-7-7------|
D |------------------------------------------------------------------|
A |------------------------------------------------------------------|
E |------------------------------------------------------------------|

e |------------------------------------------------------------------|
B |--7-------7----5----4-----4~~~Feedback, pick scr*pes--------------|
G |-----7-7----7-----6----4-------slides etc-------------------------|
D |------------------------------------------------------------------|
A |------------------------------------------------------------------|
E |------------------------------------------------------------------|

e |------------------------------------------------------------------|
B |------------------------------------------------------------------|
G |-x-7-7-7-7-7-7-7-7-7--7--7--7-9-7-9-7-9bu10-9bu10-9bu10-9-9-------|
D |------------------------------------------------------------------|
A |------------------------------------------------------------------|
E |------------------------------------------------------------------|

                          Distortion starts to kick in slowly
e |------------------------------------------------------------------|
B |------------------------------------------------------------------|
G |-9bu10-10bd9-9-7bu9-x-x-9-x-x-7-x-x-6-x-x-4-(various slides-------|
D |---------------------------------------------and sounds that------|
A |--------------------------------------------i can't tab)----------|
E |------------------------------------------------------------------|

Distortion
e |------------------------------------------------------------------|
B |---------------------------------17-tremola pick------------------|
G |-x-7-7-7-7-7-7-7-7-7--7--7--7-9/------------------7bu9------------|
D |------------------------------------------------------------------|
A |------------------------------------------------------------------|
E |------------------------------------------------------------------|

e |------------------------------------------------------------------|
B |------------------------------------------------------3-----------|
G |-x-x-9-x-x-7-x-x-6-x-x-4-4/6-6-6/7-7-7-7/9-9-9-9-9\---2-----------|
D |------------------------------------------------------0-----------|
A |------------------------------------------------------0-----------|
E |------------------------------------------------------------------|

Comments and Rating please!
            
Submit corrections

comments powered by Disqus
↑ Back to top | Muse Tabs for Cave. Lyrics for acoustic guitar and electric guitar. Tablatures and chords are parodies/interpretations of the original songs. You may use it for private study, scholarship, research or language learning purposes only