>
 >
Cave

Cave Bass Tabs

Muse - Cave chords, tabs, tablatures, lyrics

Guitar lessons | Add/correct | Request | Top 50 tabs Artists:  A B C D E F G H I J K L M N O P Q R S T U V W X Y Z 0-9

Cave Bass Tabs – Muse

CD, Sheet music, Poster

Do you like Cave? Share with your friends now
Bass TabsBass Tabs v2Bass Tabs v3Bass Tabs v4Bass Tabs v5TabsTabs v2Tabs v3Tabs v4
Artist - Muse
Track - Cave
Album - Showbiz

Intro

G---------------------------------------------5h7-7-7-5h7-7-7
D-0-0-0-0-0x-0-0-0-0-0x-0-0-0-0-0x-0-0-0-0-0-----------------
A------------------------------------------------------------
E------------------------------------------------------------

Pre-Verse 1

G-----------------        G---------5h7-7-7-5h7-7-7
D-0-0-3-0---------   x7   D-0-0-3-0----------------
A-----------0-3-4-        A------------------------
E---------4-------        E------------------------

Verse 1

G-------------------------------------------------------------------
D-0-0-3-0----------0-0-3-0----------0-0-3-0---------0-0-3-0---------
A-----------0-3-4------------0-3-4------------0-3-4-----------0-3-0-
E---------4----------------4----------------4---------------4-------

G---------------------------------------------------------
D-----------------------------5-5x-5-3-3x-3-2-2x-2-1-1x-1-
A--------0-0x-0-1-1x-1-3-3x-3-----------------------------
E-3-3x-3--------------------------------------------------

Pre-Verse 2

G-----------------        G---------5h7-7-7-5h7-7-7
D-0-0-3-0---------   x4   D-0-0-3-0----------------
A-----------0-3-4-        A------------------------
E---------4-------        E------------------------

Verse 2 - same as Verse 1

Chorus

G-------------------------------------------------------
D-0-0-0--0----------------------------------------------   x4
A-------------------------------------------------------
E--------------2-2-2--2------3-3-3--3-----3-3-3--3------

Then play: Intro
           Pre-verse 2
           Verse
           Pre-verse 2
           Verse
           Chorus

After 2nd chorus (Piano Bit) - Just play a D for ages until
the guitar comes back in

End

G-------------------------------------------------------
D-------------------------------------------------------    x2
A-2-2-2-2----2--1-1-1-1-----1--0-0----------------------
E-----------------------------------44----3-3-3-3-------

G------------
D-0----------
A------------
E------------

Original tab


I'm not 100% sure about this tab, but it is a start. To help you
learn what each part sounds like, I have put the time that it is
first heard on the track. Have fun!

Part 1 (0:16)
G--------------------------------------------
D-0-0-0-0-0x-0-0-0-0-0x-0-0-0-0-0x-0-0-0-0-0-
A--------------------------------------------
E--------------------------------------------

Part 2 (0:22. This is used throughout at random parts)
G-5h7-7-7-5h7-7-7
D----------------
A----------------
E----------------

Part 3 (0:24. The main verse riff)
G----------------------
D-0-0-0-0-3-0----------
A-------------0-2-3-5*-
E----------------------

*-This is one of the parts I'm not sure about

Part 4 (0:47)
G-------------------------------------------------------
D----------------------------5-5x-5-3-3x-3-2-2x-2-1-1x-1
A-------0-0x-0-1-1x-1-3-3x-3----------------------------
E-3-3x-3------------------------------------------------

Part 5 (1:19chorus part. Again, I am not completely sure of this
bit)
G-------------
D-0-----------
A---3-1-0-3-1-
E-------------

Well, that is the tab. I hope it helps you! If you spot any
errors, mail me! Sarah :)





Comments


Popular Muse tabs & chords
Big Freeze Bass Tabs
Escape Chords
Dead Star (Solo Ver 2) Tabs
Dead Star 1 Tabs
Heartbreaker Live Tabs
Knights Of Cydonia 3 Tabs
Madness 4 Tabs
Map Of The Problematique 3 Tabs
Stockholm Syndrome 1 Tabs
Blackout Ukulele


Song lyrics



↑ Back to top | Tablatures and chords are parodies/interpretations of the original songs. You may use it for private study, scholarship, research or language learning purposes only
© 2014 AZChords.com Contact us | Privacy policy | DMCA | Add/correct tabs | Request tabs | Top 50 tabs