» » »

Muse, Cave Bass tabs (ver.3)

Artists:  A B C D E F G H I J K L M N O P Q R S T U V W X Y Z # 

Cave Bass tabs (ver.3)

Muse Tabs
Rating:
0/5 (0 votes)
Cave lessons Tabs too difficult? Try these video lessons and learn fast
                ---------------------------------------------------------------------------
			                                Cave - Muse
---------------------------------------------------------------------------


Tuning: Standard

Guitar Opening
(0:00)Intro
G|--------------------------5h7777-5h7777--|
D|-00000-00000-00000-00000-----------------|
A|-----------------------------------------|
E|-----------------------------------------|

(0:24)Verse
G|-----------------------------------------|      
D|-0030-----0030-----000030-----000030-----|     
A|-----0034-----0034-------0034-------0034-|      
E|-----------------------------------------|
       
G|-----------------------------------------|      
D|-000030-----000030-----000030-----000030-|     
A|-------0034-------0034-------0034--------|      
E|-----------------------------------------|

G|-5h7777-5h7777-|
D|---------------|
A|---------------|
E|---------------|

G|-----------------------------------------|      
D|-0030-----0030-----000030-----000030-----|     
A|-----0034-----0034-------0034-------0034-|      
E|-----------------------------------------|

(0:48)Chorus
G|-----------------------------------------|      
D|---------------------5555333322221111----|     
A|------0000-1111-3333---------------------|      
E|-3333------------------------------------|

(0:56) Verse 2
G|-----------------------------------------|      
D|-000030-----000030-----000030-----000030-|     
A|-------0034-------0034-------0034--------|      
E|-----------------------------------------|

G|-5h7777-5h7777-|
D|---------------|
A|---------------|
E|---------------|

G|-----------------------------------------|      
D|-0030-----0030-----000030-----000030-----|     
A|-----0034-----0034-------0034-------0034-|      
E|-----------------------------------------|

(1:12)Chorus
G|-----------------------------------------|      
D|---------------------5555333322221111----|     
A|------0000-1111-3333---------------------|      
E|-3333------------------------------------|

(1:20)
G|------------------|
D|-0r---4r--5r--5r--|
A|------------------|
E|------------------| x3

(Repeat Entire Song)

(3:19) Piano Interlude
G|---------------------| (Softly)
D|-0000-0000-0000-0000-|
A|---------------------|
E|---------------------| x10

(4:03) End Interlude
G|---------------------| (Harder) 
D|-0000-0000-0000-0000-|
A|---------------------|
E|---------------------| x1

(4:05)Outro
G|------------------------------------------------------|      
D|-0\12-0--0--0-0--0------------------------------------| 
A|-------------------1--1--1-1--1-5-5435-4-3-2-2-2222r--|     
E|------------------------------------------------------|   

(4:22)
G|-------------------------------------------------------|   
D|-------------------------------------------------------|
A|-5--5--5-5--5-1--1--1-1--1010-5-5435-4-3-2-2222r----5r-|
E|-------------------------------------------------------|

----------------------------------------------------------------------------
Alright I saw the other tab for this song had a few errors in it so I played
off it it a bit and fixed it up a bit more, most of it should be exactly right,
all except the Outro (4:05-4:55) I tried and tried and this is the best I could
come up with. Sorry, if you can figure it out, please Email me your suggestions. 
            

comments powered by Disqus
↑ Back to top | Muse Bass for Cave. Lyrics for acoustic guitar and electric guitar. Tablatures and chords are parodies/interpretations of the original songs. You may use it for private study, scholarship, research or language learning purposes only