>
 >
Animals 1

Animals 1 Guitar Tabs

Muse - Animals 1 chords, tabs, tablatures, lyrics

Guitar lessons | Add/correct | Request | Top 50 tabs Artists:  A B C D E F G H I J K L M N O P Q R S T U V W X Y Z 0-9

Animals 1 Guitar Tabs – Muse

CD, Sheet music, Poster

Do you like Animals 1? Share with your friends now
Bass TabsBass Tabs v2ChordsChords v2TabsTabs v2Ukulele
Tune half a step down.

Intro
E|------------|
B|------------|
G|----9~------|
D|------------|
A|------------|
E|------------|

Verse 1
E|---------------------------------------------------------|
B|---------------------------------------------------------|
G|----11-12-14-----12-11-12tr11h9\7/9----------------------|
D|--------------------------------------9-10-12-10-9\7/9---|
A|---------------------------------------------------------|
E|---------------------------------------------------------|

E|---------------------------------------------------------|
B|---------------------------------------------------------|
G|----11-12-14-----12-11-12tr11h9\7/9----------------------|
D|--------------------------------------9-10-12-10-9\7/9---|
A|---------------------------------------------------------|
E|---------------------------------------------------------|

E|----------------12-----------------------15--------------|
B|-------------------15b17--17-17b15-13-12----12-13--------|
G|---11-12-14b---------------------------------------------|
D|---------------------------------------------------------|
A|---------------------------------------------------------|
E|---------------------------------------------------------|

Pre Chorus
E|---------------------------------------------------------|
B|---------------------------------------------------------|
G|----------11----12----14---------11-14-16~---------------|
D|----12---------------------10-12-------------------------|
A|---------------------------------------------------------|
E|---------------------------------------------------------|

Chorus
E|---------------------------------------------------------|
B|------------------13~------12----10-12--16~--------------|
G|-----16\(14)---12----------------------------------------|
D|---------------------------------------------------------|
A|---------------------------------------------------------|
E|---------------------------------------------------------|

Break
E|-------------------------------------------------------------|
B|-------------------------------------------------------------|
G|------------12-16-14-12-14-12-11h12p11---11------------------|
D|----------14---------------------------14--14-12-14-12-10----|
A|--------14------------------------------------------------14-|
E|---12-15-----------------------------------------------------|

E|-------------------------------------------------------------|
B|------------13-17-15-13-15-13-12h13p12---12------------------|
G|----------14---------------------------14--14-12-14-12-11----|  x2
D|--------14------------------------------------------------14-|
A|---12-15-----------------------------------------------------|
E|-------------------------------------------------------------|

Verse 2  (not quite right, but close ish)
E|---------------------------------------------------------|
B|---------------------------8-----------------------------|
G|----11-12-14-12--11-11b(12)-11b--7h8h9-9-7-5-4-----------|
D|---------------------------------------------------------|
A|---------------------------------------------------------|
E|---------------------------------------------------------|

E|--------------------------------12--12-----15--15--------|
B|----------12--15b17--17-17b15-13--13--13-12--12--12-13---|
G|---14b--14-----------------------------------------------|
D|---------------------------------------------------------|
A|---------------------------------------------------------|
E|---------------------------------------------------------|

Pre Chorus
E|---------------------------------------------------------|
B|---------------------------------------------------------|
G|----------9-11---9-11-12--11-12-14----------11-14-16~----|
D|----12--12-----------------------------10-12-------------|
A|-------------------------------------12------------------|
E|---------------------------------------------------------|

Chorus
E|---------------------------------------------------------|
B|------------------13~------12----10-12--16~--------------|
G|-----16\(14)---12----------------------------------------|
D|---------------------------------------------------------|
A|---------------------------------------------------------|
E|---------------------------------------------------------|

Break
E|--------------------------|
B|--------------------------|
G|--------------------------| x4
D|--------------------------|
A|--------------------------|
E|---0-0-0-12-0-0-10-0-8-0--|

E|--------------------------------------------------------------|
B|--------------------------------------------------------------|
G|-------12----12-14-12----12----------12----12b14b12----12-----|
D|-14-16----16----------16----16-14-16----16----------16--------|
A|--------------------------------------------------------------|
E|--------------------------------------------------------------|

E|-------------------------------------------------------------------|
B|-------13----13-15-13----13----------12----12-13-12----12----------|
G|-14-16----16----------16----16-12-14----14----------14----14-12----|
D|----------------------------------------------------------------16-|
A|-------------------------------------------------------------------|
E|-------------------------------------------------------------------|

E|--------------------------------------------------------------|
B|--------------------------------------------------------------|
G|-------12----12-14-12----12----------12----12b14b12----12-----|
D|-14-16----16----------16----16-14-16----16----------16--------|
A|--------------------------------------------------------------|
E|--------------------------------------------------------------|

E|-------------------------------------------------------------------|
B|-------13----13-15-13----13----------12----12-13-12----13-12-------|
G|-14-16----16----------16----16-12-14----14----------14-------14-12-|
D|-------------------------------------------------------------------|
A|-------------------------------------------------------------------|
E|-------------------------------------------------------------------|

Pre Chorus
E|---------------------------------------------------------|
B|-----13---13------13---13------13---13------13---13------|
G|--14----14--14-13----13--13-12----12--12-11----11--11----|
D|---------------------------------------------------------|
A|---------------------------------------------------------|
E|---------------------------------------------------------|

E|---------------------------------------------------------|
B|-----15---15------15---15------15---15------15---15------|
G|--11----11--11-12----12--12-13----13--13-14----14--14----|
D|---------------------------------------------------------|
A|---------------------------------------------------------|
E|---------------------------------------------------------|

Chorus
E|---------------------------------------------------------|
B|-----15---15------16---16------17---17------17---17------|
G|--16----16--16-16----16--16-16----16--16-16----16--16----|
D|---------------------------------------------------------|
A|---------------------------------------------------------|
E|---------------------------------------------------------|

E|---------------------------------------------------------|
B|-----17---17------19---19------17---17------17---17------|
G|--17----17--17-17----17--17-17----17--17-17----17--17----|
D|---------------------------------------------------------|
A|---------------------------------------------------------|
E|---------------------------------------------------------|

E|-------------------------------|
B|-----16---16------16---16------|
G|--16----16--16-16----16--16----|
D|-------------------------------|
A|-------------------------------|
E|-------------------------------|

Outro
E|----------------------------------|
B|----------------------------------|
G|----------------------------------| x4
D|-----------14-------12------------|
A|--------------------------15------|
E|--12-12-12----12-12----12----12---|

E|--------------------------|
B|--------------------------|
G|--------------------------|
D|--------------------------|  x4
A|--------------------------|
E|---0--0-12-0-0-10-0-8-0---|

E|-----------------------------|-----------------------|
B|--12b------------------------|-----------------------|
G|--12b------------------------|-----------------------|
D|--12b------------------------|-----------------------|
A|-----------------------------|-----------------------|
E|-------0-0-0-12-0-0-10-0-8-0-|-0--0-12-0-0-10-0-8-0--|

E|--------------------------|
B|--------------------------|
G|--------------------------|
D|--------------------------|  x2
A|--------------------------|
E|---0--0-12-0-0-10-0-8-0---|


E|--------------------------|----------------------|
B|--------------------------|----------------------|
G|--------------------------|----------------------| x2
D|--------------------------|----------------------|
A|--------------------------|----------------------|
E|---12---13-12-14-12-15-12-|-12---0-11-0-10-0-8---|
        (Fast picking)


It might not be 100% but its hopefully close enough.
I've done a cover of this tab if you want to check it out:





Comments


Popular Muse tabs & chords
Ashamed Bass Tabs
Falling Down Bass Tabs
Hyper Music 5 Bass Tabs
Man Of Mystery 2 Bass Tabs
City Of Delusion 4 Tabs
Glorious 2 Tabs
Invincible 5 Tabs
Muscle Museum Accoustic Tabs
Muscle Museum Intro Tabs
Hoodoo Ukulele


Song lyrics



↑ Back to top | Tablatures and chords are parodies/interpretations of the original songs. You may use it for private study, scholarship, research or language learning purposes only
© 2014 AZChords.com Contact us | Privacy policy | DMCA | Add/correct tabs | Request tabs | Top 50 tabs