» » »

Muse, Animals Bass tabs (ver.1)

Artists:  A B C D E F G H I J K L M N O P Q R S T U V W X Y Z # 

Animals Bass tabs (ver.1)

Muse Tabs
Rating:
0/5 (0 votes)
Animals lessons Tabs too difficult? Try these video lessons and learn fast
                Band: Muse
Bassist: Chris Wolstenholme
Tuning: Half-Step Down

Verse:

Gb|9--9-9--9-9-11-9-8-|7--7-7--7-7-9-7---|   |
Db|-------------------|----------------9-|   |
Ab|-------------------|------------------|   |
Eb|-------------------|------------------|   |
                                             | x6
Gb|-------------------|--------------6-7-|   |
Db|-7--7-7--7-7-9-7-6-|5--5-5--5-7-9-----|   |
Ab|-------------------|------------------|   |
Eb|-------------------|------------------|   |

Chorus:

Gb|-----------------|-----------------|-----------------|-----------------|
Db|7--7-7--7-7-7-7--|6--6-6--6-6-6-6--|5--5-5--5-5-5-5--|4--4-4--4-4-4-4--|
Ab|-----------------|-----------------|-----------------|-----------------|
Eb|-----------------|-----------------|-----------------|-----------------|

Gb|-----------------|-----------------|-----------------|-----------------|
Db|-----------------|-----------------|-----------------|-----------------|
Ab|5--5-5--5-5-5-5--|3--3-3--3-3-3-3--|1--1-1--1-1-1-1--|0--0-0--0-0-0-0--|
Eb|-----------------|-----------------|-----------------|-----------------|

Gb|-----------------|-----------------|-----------------|-----------------|
Db|5--5-5--5-5-5-5--|4--4-4--4-4-4-4--|2--2-2--2-2-2-2--|0--0-0--0-0-0-0--|
Ab|-----------------|-----------------|-----------------|-----------------|
Eb|-----------------|-----------------|-----------------|-----------------|

Gb|-----------------|-----------------|-----------------|-----------------|
Db|-----------------|-----------------|-----------------|-----------------|
Ab|3--3-3--3-3-3-3--|0--0-0--0-0-0-0--|2--2-2--2-2-2-2--|2--2-2--2-2-2-2-/|
Eb|-----------------|-----------------|-----------------|-----------------|

Gb|-----------------|-----------------|
Db|9--9-9--9-9-9-9--|9--9-9--9-9-9-9--|
Ab|-----------------|-----------------|
Eb|-----------------|-----------------|

Play verse (x6):
Play chorus:

Bridge:

Gb|-----9----7--------|
Db|--------------10---|
Ab|7--7----7---7----7-|
Eb|-------------------| x4

Guitar solo:

Gb|9--9-9--9-9-11-9-8-|7--7-7--7-7-9-7---|       |
Db|-------------------|----------------9-|       |
Ab|-------------------|------------------|       |
Eb|-------------------|------------------|       |
                                                 | x2
Gb|-------------------|------------------7-8-|   |
Db|-7--7-7--7-7-9-7-6-|5--5-5--5-5-5-7-9-----|   |
Ab|-------------------|----------------------|   |
Eb|-------------------|----------------------|   |

Chorus:

Gb|-----------------|-----------------|-----------------|-----------------|
Db|7--7-7--7-7-7-7--|6--6-6--6-6-6-6--|5--5-5--5-5-5-5--|4--4-4--4-4-4-4--|
Ab|-----------------|-----------------|-----------------|-----------------|
Eb|-----------------|-----------------|-----------------|-----------------|

Gb|-----------------|-----------------|-----------------|-----------------|
Db|-----------------|-----------------|-----------------|-----------------|
Ab|5--5-5--5-5-5-5--|3--3-3--3-3-3-3--|1--1-1--1-1-1-1--|0--0-0--0-0-0-0--|
Eb|-----------------|-----------------|-----------------|-----------------|

Gb|-----------------|-----------------|-----------------|-----------------|
Db|5--5-5--5-5-5-5--|4--4-4--4-4-4-4--|2--2-2--2-2-2-2--|0--0-0--0-0-0-0--|
Ab|-----------------|-----------------|-----------------|-----------------|
Eb|-----------------|-----------------|-----------------|-----------------|

Gb|-----------------|-----------------|-----------------|-----------------|
Db|-----------------|-----------------|-----------------|-----------------|
Ab|3--3-3--3-3-3-3--|0--0-0--0-0-0-0--|2--2-2--2-2-2-2--|2--2-2--2-2-2-2-/|
Eb|-----------------|-----------------|-----------------|-----------------|

Gb|-----------------|-----------------|
Db|9--9-9--9-9-9-9--|9--9-9-9-9-9-9-9-|
Ab|-----------------|-----------------|
Eb|-----------------|-----------------|

Play Bridge 4 times:

Ending:

Gb|-------------------|     |-------------------|
Db|-------------------|     |-------------------|
Ab|-------------------|     |-------------------|
Eb|0--0-12--0-10-0-8--| x15 |0--0-12--0-10-0-8\-|

/  slide up
\  slide down
h  hammer-on
p  pull-off
~  let ring     
            
Submit corrections

comments powered by Disqus
↑ Back to top | Muse Bass for Animals. Lyrics for acoustic guitar and electric guitar. Tablatures and chords are parodies/interpretations of the original songs. You may use it for private study, scholarship, research or language learning purposes only