>
 >
Animals

Animals Guitar Tabs

Muse - Animals chords, tabs, tablatures, lyrics

Guitar lessons | Add/correct | Request | Top 50 tabs Artists:  A B C D E F G H I J K L M N O P Q R S T U V W X Y Z 0-9

Animals Guitar Tabs – Muse

CD, Sheet music, Poster

Do you like Animals? Share with your friends now
Bass TabsBass Tabs v2ChordsChords v2TabsTabs v2Ukulele
My first tab. As correct as I can get it, hopefully you’ll agree.

Tuned Half a step down (D#, A#, F#, C#, G#, D#)

Intro
e|------------|
B|------------|
G|------------|
D|----14~-----|
A|------------|
E|------------|

Verse 1
e|------------------------------------------------------------------|
B|------------------------------------------------------------------|
G|----11-12-14-----12-11h12p11h9-7/9--------------------------------|
D|--------------------------------------9-10-12-10-9-10-9-7/9-------|
A|------------------------------------------------------------(10)--|
E|------------------------------------------------------------------|

e|----------------12--------------------------15-15-------|
B|--------------12----15b17--17-17-17b15-13-12------12-13-|
G|---14b16------------------------------------------------|
D|--------------------------------------------------------|
A|--------------------------------------------------------|
E|--------------------------------------------------------|

Pre-Chorus
e|------------------------------------------------------------|
B|------------------------------------------------------------|
G|----------------11~---------12~--------14~---------14-15-16-|
D|----12~---10-12-------10-12------10-12------9-10-12---------|
A|------------------------------------------------------------|
E|------------------------------------------------------------|

Chorus
e|---------------------------------------------------------|
B|-------------------13~------12----10-12s16~--------------|
G|-----16rb(14)---12---------------------------------------|
D|---------------------------------------------------------|
A|---------------------------------------------------------|
E|---------------------------------------------------------|

Break (Definitely helps to alternate pick here)
e|-------------------------------------------------------------|
B|-------------------------------------------------------------|
G|------------12-16-14-12-14-12-11h12p11---11------------------|
D|----------14---------------------------14--14-12-14-12-10----|
A|--------14------------------------------------------------14-|
E|---12-15-----------------------------------------------------|
                                                              Second time ends with:
e|-------------------------------------------------------|------|    |------|
B|------------13-17-15-13-15-13-12h13p12---12------------|------|    |------| 
G|----------14---------------------------14--14-12-14-12-|11----| x2 |---12-|
D|--------14---------------------------------------------|---14-|    |-16---|
A|---12-15-----------------------------------------------|------|    |------|
E|-------------------------------------------------------|------|    |------|


Verse 2
E|-------------------------------------------------------------------------------|
B|---------------------------8---------------------------------------------------|
G|----11-12-14-12--11-11b(12)-11b(12)-11b(12)rb11-9—11p9-------------------------|
D|--------------------------------------------------------12b14-14-14---9h10p9---|
A|----------------------------------------------------------------------------10-|
E|-------------------------------------------------------------------------------|

E|------------12------------------------12--12---------15--15---------|
B|----------12--15b17--17-17-17b15-13-13--13--13---12-12--12--12-13---|
G|---14b--------------------------------------------------------------|
D|--------------------------------------------------------------------|
A|--------------------------------------------------------------------|
E|--------------------------------------------------------------------|

Pre-Chorus
e|---------------------------------------------------------------|
B|---------------------------------------------------------------|
G|----------------11---------12--------14----------14-15-16------|
D|-12~------10-12------10-12-----10-12-----9-10-12---------------|
A|---------------------------------------------------------------|
E|---------------------------------------------------------------|


Chorus
e|---------------------------------------------------------|
B|-------------------13~------12----10-12s16~--------------|
G|-----16rb(14)---12---------------------------------------|
D|---------------------------------------------------------|
A|---------------------------------------------------------|
E|---------------------------------------------------------|


Breakdown (Muted)
e|--------------------------|
B|--------------------------|
G|--------------------------| x4
D|--------------------------|
A|--------------------------|
E|---0-0-0-12-0-0-10-0-8-0--|

e|-------------------------------------------------------------------|
B|-------------------------------------------------------------------|
G|-------12----12-14-12----12----------12----12-14-12----12----------|
D|-14-16----16----------16----16-14-16----16----------16-------------|
A|-------------------------------------------------------------------|
E|-------------------------------------------------------------------|

e|-------------------------------------------------------------------|
B|-------13----13-15-13----13----------12----12-13-12----12----------|
G|-14-16----16----------16----16-12-14----14----------14----14-12----|
D|----------------------------------------------------------------16-|
A|-------------------------------------------------------------------|
E|-------------------------------------------------------------------|

e|-------------------------------------------------------------------|
B|-------------------------------------------------------------------|
G|-------12----12-14-12----12----------12----12b14r12----12----------|
D|-14-16----16----------16----16-14-16----16----------16-------------|
A|-------------------------------------------------------------------|
E|-------------------------------------------------------------------|

e|-------------------------------------------------------------------|
B|-------13----13-15-13----13----------12----12-13-12----13-12-------|
G|-14-16----16----------16----16-12-14----14----------14-------14-12-|
D|-------------------------------------------------------------------|
A|-------------------------------------------------------------------|
E|-------------------------------------------------------------------|

Pre Chorus
e|-------------------------------------------------------------------|
B|------------13--------------13---------------13--------------13----|
G|--14---14-14---14-13---13-13---13s12---12-12---12-11---11-11---11--|
D|-------------------------------------------------------------------|
A|-------------------------------------------------------------------|
E|-------------------------------------------------------------------|

e|------------------------------------------------------------------------|
B|------------15--------------15---------------15-------------15----------|
G|--11---11-11---11-12---12-12---12-13---13-13---13-14---14-14---14—14s16-|
D|------------------------------------------------------------------------|
A|------------------------------------------------------------------------|
E|------------------------------------------------------------------------|

Chorus
e|---------------15----------------14-----------------12-----------------12-------|
B|--12---12-12-12--12-12---12-12-12---12-12---12-12-12---12-12---12-12-12---12s13-|
G|--------------------------------------------------------------------------------|
D|--------------------------------------------------------------------------------|
A|--------------------------------------------------------------------------------|
E|--------------------------------------------------------------------------------|

e|--------------------------------------------------------------------------------|
B|----------17--17-------------19---19-------------17--17-------------17---17-----|
G|--17-17-17--17--17---17-17-17--17---17---17-17-17--17--17---17-17-17--17--17----|
D|--------------------------------------------------------------------------------|
A|--------------------------------------------------------------------------------|
E|--------------------------------------------------------------------------------|

e|---------------------------------------|
B|-------------16---16-------16--16------|
G|--17s16-16-16--16---16---16--16--16----|
D|---------------------------------------|
A|---------------------------------------|
E|---------------------------------------|

Outro
e|----------------------------------|
B|----------------------------------|
G|----------------------------------| x4
D|-----------14-------12------------|
A|--------------------------15------|
E|----12-12----12-12----12----12/---|

e|--------------------------|
B|--------------------------|
G|--------------------------|
D|--------------------------|  x4
A|--------------------------|
E|---0--0-12-0-0-10-0-8-0---|

Then on fourth repeat (12th fret bends have lots of delay)
e|-----------------------------|
B|--12b------------------------|
G|--12b------------------------|
D|--12b------------------------|  x2
A|-----------------------------|
E|-------0-0-0-12-0-0-10-0-8-0-|

e|--------------------------|-----------------------|
B|--------------------------|-----------------------|
G|--------------------------|-----------------------|
D|--------------------------|-----------------------|  x2
A|--------------------------|-----------------------|
E|---0--0-12-0-0-10-0-8-0---|---0—0-14-0-0-15-0-17-0|


End on:
e|--------------------------|
B|--------------------------|
G|--------------------------|
D|--------------------------|
A|--------------------------|
E|---0--0-12-0-0-10-0-8~/---|


Thanks for checking this tab out.





Comments


Popular Muse tabs & chords
Big Freeze 2 Bass Tabs
Butterflies And Hurricanes 3 Bass Tabs
Dark Shines 4 Bass Tabs
I Belong To You Chords
Cave 4 Tabs
City Of Delusion 2 Tabs
Con-science 1 Tabs
Debase Masons Grog 1 Tabs
Micro Cuts 1 Tabs
Map Of The Problematique Ukulele


Song lyrics



↑ Back to top | Tablatures and chords are parodies/interpretations of the original songs. You may use it for private study, scholarship, research or language learning purposes only
© 2014 AZChords.com Contact us | Privacy policy | DMCA | Add/correct tabs | Request tabs | Top 50 tabs