» » »

Choices Tabs (ver.2)

Artists:  A B C D E F G H I J K L M N O P Q R S T U V W X Y Z # 

Choices Tabs (ver.2)

Mudvayne
Rating:
1/5 (1 vote)

Hard to play? Try these video lessons and learn fast.
                (Intro)
D|-----------------------------------------|
A|-----------------------------------------|
F|-----------------------------------------|
C|---8-7-0-1/3-0-8-7-1/3--0-0-0-0----------|
G|---8-7-0-1/3-0-8-7-1/3--0-0-0-0----------|
C|---8-7-0-1/3-0-8-7-1/3--0-0-0-0----------|

D|----------------------------------------|
A|----------------------------------------|
F|----------------------------------------|
C|--8-7-0-1/3-0-8-7-0-3-5-3-3-3-3---------|
G|--8-7-0-1/3-0-8-7-0-3-5-3-3-3-3---------|
C|--8-7-0-1/3-0-8-7-0-3-5-3-3-3-3---------|

sorry, cant tab the rest OR any other songs, my F****** strings just broke, damn
            
Hard to play? Try these video lessons and learn fast. | Correct




comments powered by Disqus
↑ Back to top | Tablatures and chords are parodies/interpretations of the original songs. You may use it for private study, scholarship, research or language learning purposes only