>
 >
Choices

Choices Bass Tabs

Mudvayne - Choices chords, tabs, tablatures, lyrics

Guitar lessons | Add/correct | Request | Top 50 tabs Artists:  A B C D E F G H I J K L M N O P Q R S T U V W X Y Z 0-9

Choices Bass Tabs – Mudvayne

CD, Sheet music, Poster

Do you like Choices? Share with your friends now
Bass TabsBass Tabs v2Tabs
Mudvayne - Choices

tuning (low to high) - G C G C F

Fill 1 x1
   ssse  s ssse  ssssS   ssse  s ssse  ssse
|---------------------|---------------------|
|---------/8----------|-/8------/8----------|
|4----------7---------|---7-------7---------|
|4-2201^-0---01^-0000-|----01^-0---01^-0134-|
|---------------------|---------------------|

Riff 1 x3
   ssse  s ssse  ssssS   ssse  s ssse  ssse
|---------------------|---------------------|
|-/8------/8----------|-/8------/8----------|
|---7-------7---------|---7-------7---------|
|----01^-0---01^-0000-|----01^-0---01^-0134-|
|---------------------|---------------------|

Riff 2 x2
  ss e s  s s s s s Ss Ss s s     ss e ss e. s s ss s e
|---------------1715-14---------|------------------------|
|-----------15----------171514\-|------------------------|
|------15h17--17----------------|----------------6-------|
|-00-0--------------------------|------------8h10-108-8\-|
|-------------------------------|-88-8-88-8--------------|

  ss e s  s s s s  s Ss Ss  s s     ss e ss e. s  s s e   s s 
|---------------15p14-------------|----------------------------|
|-----------15--------17-15p14----|----------------------------|
|------15h17--17--------------15\-|----------------------------|
|-00-0----------------------------|------------10h121212^-1212-|
|---------------------------------|-88-8-88-8------------------|

Riff 3 x2
  ss e Ssssss e Ssss   ss e SsssssssSsss   ss e Ssssss e Ssss   ss e Ssss  ssssssss
|--------------------|-------------------|--------------------|---------------------|
|--------------------|-----------5-5--45-|--------------------|---------------------|
|----------3---------|-8--------3-4--3---|----------3---------|-8-----------33-33-3-|
|-01-0--434-0-0--434-|--5-5--434---------|-01-0--434-0-0--434-|--5-5--4344h6--6--6--|
|--------------------|-------------------|--------------------|---------------------|

Riff 1 x2

Riff 2 x2

Riff 3 x2

Fill 2 x1
  ssssssssssssssss   ssssssssssssssss   ssssssssssssssss   ssssssssssssssss
|------------------|------------------|------------------|------------------|
|-------------7----|------------------|-------------7----|------------------|
|-----543------876-|-----543--3--4--5-|-----543------876-|-----5430-33-33-3-|
|-0120---05670-----|-0120---06-07-08--|-0120---05670-----|-0120----6--6--6--|
|------------------|------------------|------------------|------------------|

Riff 2 x2

Solo 1
  ss e s  s s s s s Ss Ss s s     ss e ss e. s s ss s e     Ss s ss sss
|---------------1715-14---------|------------------------|--------------|
|-----------15----------171514\-|------------------------|--------------|
|------15h17--17----------------|----------------6-------|2------6------|
|-00-0--------------------------|------------8h10-108-8\-|4--8h10-10888-|
|-------------------------------|-88-8-88-8--------------|--------------|

   h    q.  s s     w          q.  s sq.  s s    w          q.  sse ssq
|---------------|------------|-----------------|----------|--------------|
|---------------|------------|-----------------|----------|--------------|
|4-6----6---6h8-|-8h9--------|-6---8h98---9h11-|-9--------|-6----68-886--|
|4--------------|------------|-----------------|----------|-----8--------|
|---------------|------------|-----------------|----------|--------------|

    h      s e  s e e   q.  ssq.  s s    se se ss  e  e ssss    e e se s  e e s e s
|---------------------|----------------|----------------------|---------------------|
|---------------------|----------------|----------------------|-----8--8------10----|
|-8h9----9h1111-119-\-|-6----68---9h11-|-99-88-999h11-9-898---|-6-6--6--6h8-8---8-X-|
|---------------------|-----8----------|-------------------11-|---------------------|
|---------------------|----------------|----------------------|---------------------|

  e. ss e s  e.  s  q     e e se s  e ss s e s      e ss s e s   e  e  s s  e
|-----------------------|-----------------------|-----------------------------|
|-----------------------|-----8--8-----1010--10-|------1111--X11h13-11-10-----|
|-9--9--9-X9h11--11/15--|-6-6--6--6h8-8----8----|-8h9-9----9-------------11\4-|
|-----11----------------|-----------------------|-----------------------------|
|-----------------------|-----------------------|-----------------------------|

  e ssse s  e ss s e s     e ss s e s  e  e ssss      e ssssss  ssss s ss s
|----------------------|--------------------------|-------------------------|
|----------------------|--------------------------|------88--------1010-----|
|-6-6--6-X6h8-8----8-X-|-8h9-9----9-X9h11-9-898---|-4h6-6--6-66h888----8--8-|
|----88--------1010----|------1111-------------11-|---------8-----------10--|
|----------------------|--------------------------|-------------------------|

    ssss s ss e  s s s s  s s s
|------------------11--11p10----|
|------1111-----/11--11-----10--|
|-8h999----9--9---------------8-|
|-----------11------------------|
|-------------------------------|

Riff 2 x1

Fill 3 x1
  ss e s  s s s s s Ss Ss s s     ss e ss e. s s ss s e
|---------------1715-14---------|------------------------|
|-----------15----------171514\-|------------------------|
|------15h17--17----------------|----------------6-------|
|-00-0--------------------------|------------8h10-108-8\-|
|-------------------------------|-88-8-88-8--------------|

  ss e s  s s s s  s Ss Ss  s s     ss e ss e. s  s s e   s s     S s s s e   s s
|---------------15p14-------------|----------------------------|-------------------|
|-----------15--------17-15p14----|----------------------------|-------------------|
|------15h17--17--------------15\-|----------------------------|2------------------|
|-00-0----------------------------|------------10h121212^-1012-|4------------------|
|---------------------------------|-88-8-88-8------------------|---/15121012^-1012-|

Riff 2 x2

Fill 4 x1
  q   e.   e.   q.      (q)    (q)     (q)     (q)
|----<5>-------------|--------------------------------|
|---------<5>--------|--------------------------------|
|--------------<5>---|-(<5>)--(<5>)^--(<5>)^--(<5>)^--|
|-0------------------|--------------------------------|
|--------------------|--------------------------------|

Rest for 6 bars in 4/4

Fill 5 x1
  h     h       w           h     h       w            h     h       h     h
|-15----15----|-15--------|-15----15----|-15---------|-15----15----|-15----15----|
|-13----15----|-16--------|-13----15----|-16---------|-13----15----|-16----16----|
|-------------|-----------|-------------|------------|-------------|-------------|
|-------------|-----------|-------------|------------|-------------|-------------|
|-------------|-----------|-------------|------------|-------------|-------------|

Riff 4 x4
  s s  e  s s  e  s s  e  s s  e    s s  e  s s  e  s s  e  s s  e
|-1515----1515----1515----1515----|-1515----1515----1515----1515----|
|------13------13------15------15-|------16------16------16------16-|
|---------------------------------|---------------------------------|
|---------------------------------|---------------------------------|
|---------------------------------|---------------------------------|

Riff 5 x1
  ss e ss e ss e ss e   ss e ss e ss e ss e
|---------------------|---------------------|
|---------------------|---------------------|
|-11---11---11---11---|-11---11---11---11---|
|----1----1----3----3-|----4----4----4----4-|
|---------------------|---------------------|

Solo 2
  ss e ss e ss e ss e   ss e ss e ss e ssss   ss e ss e ss e ss e   ss e ss e se   e se
|---------------------|---------------------|---------------------|---------------------|
|---------------------|---------------------|---------------------|---------------------|
|-11---11---11---11---|-11---11---11---141--|-11---11---11---11---|-11---11---14-4h6-43-|
|----1----1----3----3-|----4----4----4----4-|----1----1----3----3-|----4----4-----------|
|---------------------|---------------------|---------------------|---------------------|

  ss e ss e ss e ss e   ss e ss e ssse s e   e. e sss e e ss e   e. e sss e e ss e
|---------------------|--------------------|-------------------|--------------------|
|---------------------|--------------------|------1-------3----|------4-------4-----|
|-11---11---11---11---|-11---11---1--------|----1--1----3--X---|----4--4----4--X----|
|----1----1----3----3-|----4----4--XX4-X-3-|-1------1-3------3-|-4------0-4------4\-|
|---------------------|--------------------|-------------------|--------------------|

  e. e sss e e ss e   e. e sss e e ss e    e. sssss  e e ss e     e. ssss  e s e ss e
|-------------------|--------------------|--------------------|------------------------|
|------1-------3----|------4-------4-----|-----1--1------3----|-------4-X4h6-X-4-3-----|
|----1--1----3--3---|----4--4----4--4----|----1-1------3--3---|------4-X----------4----|
|-1------1-3------3-|-4------X-4------4\-|-1-----1-1h3------3-|-3h4-----------------4\-|
|-------------------|--------------------|--------------------|------------------------|

  e e ssss e e ssss   e e ssss e ssss e   e e ssss e e ssss   e e ssssssssss e
|-------------------|-------------------|-------------------|-------------------|
|-----1--1-----3--3-|-----4--4----44----|-----1--1-----3--3-|-----4--4--4--4----|
|---1--1-----3--3---|---4--4-----4--4---|---1--1-----3--3---|---4--4---4--X--4\-|
|-1-----1--3-----3--|-4-----4--4------4-|-1-----1--3-----3--|-4-----4-4--4------|
|-------------------|-------------------|-------------------|-------------------|

  e e ssss e e ssss   q   s s  e  ss e s s  e     e e ssss e e ssss
|-------------------|---------------------------|-------------------|
|-----1431-----3643-|---------------------------|-----1431-----3643-|
|---1--------3------|---------------------------|---1--------3------|
|-1--------3--------|-4--/1616-16\44-4/1616-16\-|-1--------3--------|
|-------------------|---------------------------|-------------------|

  q   s s  e   s s s s  e  e
|------------------------------|
|------------------------------|
|------------------------------|
|-4--/1616-16\/16161515-13-11\-|
|------------------------------|

Rest for 6 bars in 4/4

Riff 5 x14 (FADE OUT)





Comments


Popular Mudvayne tabs & chords
Cradle 2 Bass Tabs
Everything And Nothing 2 Bass Tabs
Fall Into Sleep 3 Bass Tabs
Internal Primates Forever 2 Bass Tabs
Nothing To Gain Bass Tabs
Scarlet Letters 2 Bass Tabs
Not Falling 1 Drum Tabs
A Key To Nothing 1 Tabs
Death Blooms 2 Tabs
I Cant Wait Tabs


Song lyrics



↑ Back to top | Tablatures and chords are parodies/interpretations of the original songs. You may use it for private study, scholarship, research or language learning purposes only
© 2014 AZChords.com Contact us | Privacy policy | DMCA | Add/correct tabs | Request tabs | Top 50 tabs