» » »

Mudvayne, Dead Inside Tabs (ver.1)

Artists:  A B C D E F G H I J K L M N O P Q R S T U V W X Y Z # 

Dead Inside Tabs (ver.1)

Mudvayne Tabs
Rating:
5/5 (5 votes)
Hard to play? Try these video lessons and learn fast.
                Dead Inside- Mudvayne                          

Tuning: Standard E (EADGBe)

This is my first tab. Listen to the song for the strumming pattern. 
The song is 100% correct, you just need to listen to it to count the number of strums.

Intro/Verse Riff
e|-------------------------------------------------------------------------|
B|-------------------------------------------------------------------------|
G|-------------------------------------------------------------------------|
D|-------------------------------------------------------------------------|
A|---2-2-2-2-2-2-0-0-------------------------------------------------------|
E|---0-0-0-0-3-3-2-2-------------------------------------------------------|

Pre-Chorus
e|---0-------0-------------------------------------------------------------|
B|---0---0---0---0---------------------------------------------------------|
G|---2---0---2---0---0-----------------------------------------------------|
D|---2---0---2---0---0-----------------------------------------------------|
A|---0---2---0---2---0-----------------------------------------------------|
E|-------3-------3---2-----------------------------------------------------|

Chorus
e|-----------0---0---------------------------------------------------------|
B|-------0---0---0---------------------------------------------------------|
G|-------0---0---2---------------------------------------------------------|
D|---2---0---2---2---------------------------------------------------------|
A|---2---2---3---0---------------------------------------------------------|
E|---0---3-----------------------------------------------------------------|

Bridge
e|---0---0-------0---0---0-------------------------------------------------|
B|---3---0-------3---0---0---0---------------------------------------------|
G|---2---2---0---2---2---0---0---------------------------------------------|
D|---0---2---2---0---2---2---0---------------------------------------------|
A|-------0---2-------0---3---2---------------------------------------------|
E|-----------0---------------3---------------------------------------------|

end bridge on this
e|-0---0--------------|
B|-3---0--------------|
G|-2---2--------------|
D|-0---2--------------|
A|-----0--------------|
E|--------------------|

Outro Riff
e|------------------|
B|-------0-----0----|
G|--------2----2----|
D|---------2---2----|
A|----------0--0----|
E|------------------|


Order: (approx. times)
Intro/Verse Riff X6 :00-:40
Pre-Chorus X1 :41-:52
Chrous X2 :53-1:16
Intro/Verse Riff X6 1:17-1:57
Pre-Chorus X1 1:58-2:09
Chorus X2 2:10-2:33
Bridge X2 2:34-3:01
Chorus X4 3:02-3:48
Outro Riff X1 3:49-3:53
************************************

| /   slide up
| \   slide down
| h   hammer-on
| p   pull-off
| ~   vibrato
| +   harmonic
| x   Mute note
| b   Bend
| pb  Pre-bend
| br  Bend release
| pbr Pre-bend release
| brb Bend release bend

************************************
            

comments powered by Disqus
↑ Back to top | Mudvayne Tabs for Dead Inside. Lyrics for acoustic guitar and electric guitar. Tablatures and chords are parodies/interpretations of the original songs. You may use it for private study, scholarship, research or language learning purposes only