>
 >
A World So Cold

A World So Cold Guitar Tabs

Mudvayne - A World So Cold chords, tabs, tablatures, lyrics

Guitar lessons | Add/correct | Request | Top 50 tabs Artists:  A B C D E F G H I J K L M N O P Q R S T U V W X Y Z 0-9

A World So Cold Guitar Tabs – Mudvayne

CD, Sheet music, Poster

Do you like A World So Cold? Share with your friends now
Tabs
I could not find This tab anywhere, so i'm going
to atempt it. Parts of this are not right and
there is other guitar work going on but i think
i got the basics. If you can correct or add to
what i have please shoot me an email.



Clean 
--------------------------------------------
--------------------------------------------
--------------------------------------------
---10-10-10-10-10-10-10-10-10-10-10-9-9-9-9-
----0--0--0--0--0--0--0--0--0--0--0-0-0-0-0-
--------------------------------------------


-----------------------------------
-----------------------------------
-----------------------------------
7-9-7-7-7-7-7-7-7-7-7-7-9-9-9-10-0-
0-0-0-0-0-0-0-0-0-0-0-0-0-0-0--0-0-
---------------------------------0-


------------------------------------
------------------------------------
------------------------------------
-5-5-5-5-5-5-5-5-5-5-5-5-5-5-5-5-5-5
------------------------------------
-3-3-3-3-3-3-3-3-3-3-3-3-3-3-3-0-3-3


-----------------------------||
-----------------------------||
-----------------------------||
-5-5-5-5-5-5-5-5-5/7-7-7-7-7-||
-----------------------------||
-3-3-3-3-3-3-3-3-3/5-5-5-5-5-||  4 times


Distortion
---------------------------------------------
---------------------------------------------
----------------4/5-5-5-5\4-2----------------
-3-3--3-3--3-3-----------------3-3--3-3--3-3-
-3-3--3-3--3-3--2/3-3-3-3\2-0--3-3--3-3--3-3-
-3-3--3-3--3-3-----------------3-3--3-3--3-3-


--------------------------------------------
--------------------------------------------
-4/5-5-5--5\4-2-------------------7---------
--------------------------------------------
-2/3-3-3--3\2-0--0----2-3-2-0-0---5----0----
-----------------0----2-3-2-0-0--------0----


---------------||
---------------||
------------12-||
---------------||
2-3-2-0-0---10-||
2-3-2-0-0------|| 2 times


Clean    
----------------------------------------------
----------------------------------------------
----------------------------------------------
---10-10-10-10-10-10-10-10-10-10-10-10-9-9-9-7
----0--0--0--0--0--0--0--0--0--0--0--0-0-0-0-0
----------------------------------------------


--------------------------------||
--------------------------------||
------------------------------0-||
-7-7-7-7-7-7-7-7-7-7-7-10-9-7-5-||
-0-0-0-0-0-0-0-0-0-0-0--0-0-0-0-||
--------------------------------|| 1 time


----------------------------------------------
----------------------------------------------
----------------------------------------------
---10-10-10-10-10-10-10-10-10-10-10-9-9-9-9-7-
----0--0--0--0--0--0--0--0--0--0--0-0-0-0-0-0-
----------------------------------------------


---------------------------------
---------------------------------
---------------------------------
9-7-7-7-7-7-7-7-7-7-7-9-9-9-10-0-
0-0-0-0-0-0-0-0-0-0-0-0-0-0--0-0-
-------------------------------0-


-------------------------------------
-------------------------------------
-------------------------------------
-5-5-5-5-5-5-5-5-5-5-5-5-5-5-5-5-5-5-
-------------------------------------
-3-3-3-3-3-3-3-3-3-3-3-3-3-3-3-0-3-3-


----------------------------||
----------------------------||
----------------------------||
5-5-5-5-5-5-5-5-5/7-7-7-7-7-||
----------------------------||
3-3-3-3-3-3-3-3-3/5-5-5-5-5-||  4 times


Distortion
----------------------------------------------
----------------------------------------------
----------------4/(5)-5-5-5\(4)-2-------------
-3-3--3-3--3-3---------------------3-3--3-3--3
-3-3--3-3--3-3--2/(3)-3-3-3\(2)-0--3-3--3-3--3
-3-3--3-3--3-3---------------------3-3--3-3--3


-------------------------------------
-------------------------------------
----4/(5)-5-5-5\(4)-2----------------
-3-----------------------------------
-3--2/(3)-3-3-3\(2)-0--0----2-3-2-0-0
-3---------------------0----2-3-2-0-0


----------------------------||
----------------------------||
---7---------------------12-||
----------------------------||
---5----0----2-3-2-0-0---10-||
--------0----2-3-2-0-0------||  3 times


---------------------------------------------
---------------------------------------------
----------------4/(5)-5-5-5\(4)-2------------
-3-3--3-3--3-3---------------------3-3--3-3--
-3-3--3-3--3-3--2/(3)-3-3-3\(2)-0--3-3--3-3--
-3-3--3-3--3-3---------------------3-3--3-3--


-----------------------||
-----------------------||
-----4/(5)-5-5-5\(4)-2-||
3-3--------------------||
3-3--2/(3)-3-3-3\(2)-0-||
3-3--------------------|| 1 time


-----------------------------------------
-----------------------------------------
-----------------------------------------
-----------------------------------------
-0-0-0---0---0-0-0--3----10-10-10---10---
-0-0-0---0---0-0-0--3----10-10-10---10---


-----------------------------------
-----------------------------------
-----------------------------------
-----------------------------------
10-10-10--10-10-10---8-8-8--10-8-10
10-10-10--10-10-10---8-8-8--10-8-10


------------------------------||
------------------------------||
------------------------------||
------------------------------||
--10-8---8-8-8--10-8-10--10-8-||
--10-8---8-8-8--10-8-10--10-8-||  4 times


-----------------------------------------
-----------------------------------------
-----------------------------------------
-----------------------------------------
-0-----5/7/8---10----8---10----8---7-----
-0-----5/7/8---10----8---10----8---7-----


--------------------------------------||
--------------------------------------||
--------------------------------------||
--------------------------------------||
---3-------7--------3-------7----0----||
---3-------7--------3-------7----0----|| 1 time


--------------------------------------------
--------------------------------------------
--------------------------------------------
--------------------------------------------
-3-3-3-3-3-3-3-3-3-3-3-3-3-3-3-3-7-7-7-7-7-7
-3-3-3-3-3-3-3-3-3-3-3-3-3-3-3-3-7-7-7-7-7-7


---------------------------------------------
---------------------------------------------
---------------------------------------------
---------------------------------------------
-7-7-7-7-7-7-7-7-7-7-3-3-3-3-3-3-3-3-3-3-3-3-
-7-7-7-7-7-7-7-7-7-7-3-3-3-3-3-3-3-3-3-3-3-3-


-----------------------------------||
-----------------------------------||
-----------------------------------||
-----------------------------------||
3-3-3-3-7-7-7-7-7-7-7-7-0----------||
3-3-3-3-7-7-7-7-7-7-7-7-0----------||3 times


-----------------------------------
-----------------------------------
-----------------------------------
-----------------------------------
-3-2-3---3---3-2-3--3-2-3---7-5-7--
-3-2-3---3---3-3-3--3-2-3---7-5-7--


---------------------------------------
---------------------------------------
---------------------------------------
---------------------------------------
-7---7-5-7--7-5-7---3-2-3---3---3-2-3--
-7---7-5-7--7-5-7---3-2-3---3---3-2-3--


--------------------------------||
--------------------------------||
--------------------------------||
--------------------------------||
3-2-3---7-5-7---7---7-0---------||
3-2-3---7-5-7---7---7-0---------|| 2 times





Comments


Popular Mudvayne tabs & chords
Dull Boy 4 Bass Tabs
Goodbye 2 Bass Tabs
Not Faling Bass Tabs
Skrying 2 Bass Tabs
A Cinderella Story Tabs
Choices Intro 1 Tabs
Dig 3 Tabs
Diggg Tabs
L.D.50 All Word To It Tabs
Not Falling Tabs


Song lyrics



↑ Back to top | Tablatures and chords are parodies/interpretations of the original songs. You may use it for private study, scholarship, research or language learning purposes only
© 2014 AZChords.com Contact us | Privacy policy | DMCA | Add/correct tabs | Request tabs | Top 50 tabs