>
 >
Choices

Choices Guitar Tabs

Mudvayne - Choices chords, tabs, tablatures, lyrics

Guitar lessons | Add/correct | Request | Top 50 tabs Artists:  A B C D E F G H I J K L M N O P Q R S T U V W X Y Z 0-9

Choices Guitar Tabs – Mudvayne

CD, Sheet music, Poster

Do you like Choices? Share with your friends now
Bass TabsBass Tabs v2Tabs
  ______________________________
 | /\/\/\/\/\/\/\/\/\/\/\/\/\/\ |
 |>  SONG: Choices             <|
 |>  ARTIST: Mudvayne          <|
 | \/\/\/\/\/\/\/\/\/\/\/\/\/\/ |
 |------------------------------|

please comment!!!!


NOTE:the: C||-2----'s may be played as  F||-3----| if u want but the first
          G||-1----                     C||-2----| way is just easier
          C||------                     G||-1----|
                                        C||------|


     S S S E    S S S S E    S S S E     S S S E    S S S S E    S S S E
D||-----------------------------------|-----------------------------------|
A||-----------------------------------|-----------------------------------|
F||-----------------------------------|-----------------------------------|
C||--2------------2-------------------|--2------------2-------------------|
G||--1------------1-------------------|--1------------1-------------------|
C||----2-0-2br--0---2-0-2br--0-0-0-0--|----2-0-2br--0---2-0-2br--0-2-3-4--|


  S S S E    S S S S E    S S S E     S S S E    S S S S E    S S S E
-----------------------------------|-----------------------------------|
-----------------------------------|-----------------------------------|
-----------------------------------|-----------------------------------|
--2------------2-------------------|--2------------2-------------------|
--1------------1-------------------|--1------------1-------------------|
----2-0-2br--0---2-0-2br--0-0-0-0--|----2-0-2br--0---2-0-2br--0-2-3-4--|


  S S S E    S S S S E    S S S E     S S S E    S S S S E    S S S E
-----------------------------------|-----------------------------------|
-----------------------------------|-----------------------------------|
-----------------------------------|-----------------------------------|
--2------------2-------------------|--2------------2-------------------|
--1------------1-------------------|--1------------1-------------------|
----2-0-2br--0---2-0-2br--0-0-0-0--|----2-0-2br--0---2-0-2br--0-2-3-4--|


  S S S E    S S S S E    S S S E     S S S E    S S S S E    S S S E
-----------------------------------|-----------------------------------|
-----------------------------------|-----------------------------------|
-----------------------------------|-----------------------------------|
--2------------2-------------------|--2------------2-------------------|
--1------------1-------------------|--1------------1-------------------|
----2-0-2br--0---2-0-2br--0-0-0-0--|----2-0-2br--0---2-0-2br--0-2-3-4--|

  S S E  E  E  E  E  S S S S    S S E  S S E.  S  S S  S S S S
-----------------------------|---------------------------------|
---------6-----6-----5-------|---------------------------------|
------------5-----5----5---5-|---------------------------------|
-------------------------3---|-----------------5s-7-8s-7-5-5-5-|
--0-0-0----------------------|--3-3-3--3-3-3---3s-5-6s-5-3-3-3-|
--0-0-0----------------------|--3-3-3--3-3-3-------------------|


  S S E  E  E  E  E  S S S S    S S E  S S E.  S  S S S  S S S
-----------------------------|---------------------------------|
---------6-----6-----5-------|---------------------------------|
------------5-----5----5---5-|---------------------------------|
-------------------------3---|-----------------5s-7-7-8s-7-7-7-|
--0-0-0----------------------|--3-3-3--3-3-3---3s-5-5-6s-5-5-5-|
--0-0-0----------------------|--3-3-3--3-3-3-------------------|


  S S E  E  E  E  E  S S S S    S S E  S S E.  S  S S  S S S S
-----------------------------|---------------------------------|
---------6-----6-----5-------|---------------------------------|
------------5-----5----5---5-|---------------------------------|
-------------------------3---|-----------------5s-7-8s-7-5-5-5-|
--0-0-0----------------------|--3-3-3--3-3-3---3s-5-6s-5-3-3-3-|
--0-0-0----------------------|--3-3-3--3-3-3-------------------|


  S S E  E  E  E  E  S S S S    S S E  S S E.  S  S S S  S S S
-----------------------------|---------------------------------|
---------6-----6-----5-------|---------------------------------|
------------5-----5----5---5-|---------------------------------|
-------------------------3---|-----------------5s-7-7-8s-7-7-7-|
--0-0-0----------------------|--3-3-3--3-3-3---3s-5-5-6s-5-5-5-|
--0-0-0----------------------|--3-3-3--3-3-3-------------------|

  S S S E  S S S S S S E  S S S    S S S E  S S S S S S S S S S S
--------------------------------|---------------------------------|
--------------------------------|---------------------------------|
--------------------------------|---------------------------------|
--------------------------------|---------------------------------|
-----------------3--------------|--7--------------3---3-----3---3-|
--0-1-0----4-3-4---0-0----4-3-4-|----6-6----4-3-4---4---4-----4---|


  S S S E  S S S S S S E  S S S    S S S E  S S S S S S S S S S S
--------------------------------|---------------------------------|
--------------------------------|---------------------------------|
--------------------------------|---------------------------------|
--------------------------------|---------------------------------|
-----------------3--------------|--7--------------3-----3-----3---|
--0-1-0----4-3-4---0-0----4-3-4-|----6-6----4-3-4---4-4---4-4---4-|


  S S S E  S S S S S S E  S S S    S S S E  S S S S S S S S S S S
--------------------------------|---------------------------------|
--------------------------------|---------------------------------|
--------------------------------|---------------------------------|
--------------------------------|---------------------------------|
-----------------3--------------|--7--------------3---3-----3---3-|
--0-1-0----4-3-4---0-0----4-3-4-|----6-6----4-3-4---4---4-----4---|


  S S S E  S S S S S S E  S S S    S S S E  S S S S S S S S S S S
--------------------------------|---------------------------------|
--------------------------------|---------------------------------|
--------------------------------|---------------------------------|
--------------------------------|---------------------------------|
-----------------3--------------|--7--------------3-----3-----3---|
--0-1-0----4-3-4---0-0----4-3-4-|----6-6----4-3-4---4-4---4-4---4-|


  S S S E    S S S S E    S S S E     S S S E    S S S S E    S S S E
-----------------------------------|-----------------------------------|
-----------------------------------|-----------------------------------|
-----------------------------------|-----------------------------------|
--2------------2-------------------|--2------------2-------------------|
--1------------1-------------------|--1------------1-------------------|
----2-0-2br--0---2-0-2br--0-0-0-0--|----2-0-2br--0---2-0-2br--0-2-3-4--|


  S S S E    S S S S E    S S S E     S S S E    S S S S E    S S S E
-----------------------------------|-----------------------------------|
-----------------------------------|-----------------------------------|
-----------------------------------|-----------------------------------|
--2------------2-------------------|--2------------2-------------------|
--1------------1-------------------|--1------------1-------------------|
----2-0-2br--0---2-0-2br--0-0-0-0--|----2-0-2br--0---2-0-2br--0-2-3-4--|


  S S E  E  E  E  E  S S S S    S S E  S S E.  S  S S  S S S S
-----------------------------|---------------------------------|
---------6-----6-----5-------|---------------------------------|
------------5-----5----5---5-|---------------------------------|
-------------------------3---|-----------------5s-7-8s-7-5-5-5-|
--0-0-0----------------------|--3-3-3--3-3-3---3s-5-6s-5-3-3-3-|
--0-0-0----------------------|--3-3-3--3-3-3-------------------|


  S S E  E  E  E  E  S S S S    S S E  S S E.  S  S S S  S S S
-----------------------------|---------------------------------|
---------6-----6-----5-------|---------------------------------|
------------5-----5----5---5-|---------------------------------|
-------------------------3---|-----------------5s-7-7-8s-7-7-7-|
--0-0-0----------------------|--3-3-3--3-3-3---3s-5-5-6s-5-5-5-|
--0-0-0----------------------|--3-3-3--3-3-3-------------------|


  S S E  E  E  E  E  S S S S    S S E  S S E.  S  S S  S S S S
-----------------------------|---------------------------------|
---------6-----6-----5-------|---------------------------------|
------------5-----5----5---5-|---------------------------------|
-------------------------3---|-----------------5s-7-8s-7-5-5-5-|
--0-0-0----------------------|--3-3-3--3-3-3---3s-5-6s-5-3-3-3-|
--0-0-0----------------------|--3-3-3--3-3-3-------------------|


  S S E  E  E  E  E  S S S S    S S E  S S E.  S  S S S  S S S
-----------------------------|---------------------------------|
---------6-----6-----5-------|---------------------------------|
------------5-----5----5---5-|---------------------------------|
-------------------------3---|-----------------5s-7-7-8s-7-7-7-|
--0-0-0----------------------|--3-3-3--3-3-3---3s-5-5-6s-5-5-5-|
--0-0-0----------------------|--3-3-3--3-3-3-------------------|


  S S S E  S S S S S S E  S S S    S S S E  S S S S S S S S S S S
--------------------------------|---------------------------------|
--------------------------------|---------------------------------|
--------------------------------|---------------------------------|
--------------------------------|---------------------------------|
-----------------3--------------|--7--------------3---3-----3---3-|
--0-1-0----4-3-4---0-0----4-3-4-|----6-6----4-3-4---4---4-----4---|


  S S S E  S S S S S S E  S S S    S S S E  S S S S S S S S S S S
--------------------------------|---------------------------------|
--------------------------------|---------------------------------|
--------------------------------|---------------------------------|
--------------------------------|---------------------------------|
-----------------3--------------|--7--------------3-----3-----3---|
--0-1-0----4-3-4---0-0----4-3-4-|----6-6----4-3-4---4-4---4-4---4-|


  S S S E  S S S S S S E  S S S    S S S E  S S S S S S S S S S S
--------------------------------|---------------------------------|
--------------------------------|---------------------------------|
--------------------------------|---------------------------------|
--------------------------------|---------------------------------|
-----------------3--------------|--7--------------3---3-----3---3-|
--0-1-0----4-3-4---0-0----4-3-4-|----6-6----4-3-4---4---4-----4---|


  S S S E  S S S S S S E  S S S    S S S E  S S S S S S S S S S S
--------------------------------|---------------------------------|
--------------------------------|---------------------------------|
--------------------------------|---------------------------------|
--------------------------------|---------------------------------|
-----------------3--------------|--7--------------3-----3-----3---|
--0-1-0----4-3-4---0-0----4-3-4-|----6-6----4-3-4---4-4---4-4---4-|


  S S S E  S S S S S S E  S S S    S S S E  S S S S S S S S S S S
--------------------------------|---------------------------------|
--------------------------------|---------------------------------|
--------------------------------|---------------------------------|
--------------------------------|---------------------------------|
-----------------3--------------|--7--------------3---3-----3---3-|
--0-1-0----4-3-4---0-0----4-3-4-|----6-6----4-3-4---4---4-----4---|


  S S S E  S S S S S S E  S S S    S S S E  S S S S S S S S S S S
--------------------------------|---------------------------------|
--------------------------------|---------------------------------|
--------------------------------|---------------------------------|
--------------------------------|---------------------------------|
-----------------3--------------|--7--------------3-----3-----3---|
--0-1-0----4-3-4---0-0----4-3-4-|----6-6----4-3-4---4-4---4-4---4-|


  S S E  E  E  E  E  S S S S    S S E  S S E.  S  S S  S S S S
-----------------------------|---------------------------------|
---------6-----6-----5-------|---------------------------------|
------------5-----5----5---5-|---------------------------------|
-------------------------3---|-----------------5s-7-8s-7-5-5-5-|
--0-0-0----------------------|--3-3-3--3-3-3---3s-5-6s-5-3-3-3-|
--0-0-0----------------------|--3-3-3--3-3-3-------------------|


  S S E  E  E  E  E  S S S S    S S E  S S E.  S  S S S  S S S
-----------------------------|---------------------------------|
---------6-----6-----5-------|---------------------------------|
------------5-----5----5---5-|---------------------------------|
-------------------------3---|-----------------5s-7-7-8s-7-7-7-|
--0-0-0----------------------|--3-3-3--3-3-3---3s-5-5-6s-5-5-5-|
--0-0-0----------------------|--3-3-3--3-3-3-------------------|


  S S E  E  E  E  E  S S S S    S S E  S S E.  S  S S  S S S S
-----------------------------|---------------------------------|
---------6-----6-----5-------|---------------------------------|
------------5-----5----5---5-|---------------------------------|
-------------------------3---|-----------------5s-7-8s-7-5-5-5-|
--0-0-0----------------------|--3-3-3--3-3-3---3s-5-6s-5-3-3-3-|
--0-0-0----------------------|--3-3-3--3-3-3-------------------|


  S S E  E  E  E  E  S S S S    S S E  S S E.  S  S S S  S S S
-----------------------------|---------------------------------|
---------6-----6-----5-------|---------------------------------|
------------5-----5----5---5-|---------------------------------|
-------------------------3---|-----------------5s-7-7-8s-7-7-7-|
--0-0-0----------------------|--3-3-3--3-3-3---3s-5-5-6s-5-5-5-|
--0-0-0----------------------|--3-3-3--3-3-3-------------------|


  S S E  E  E  E  E  S S S S    S S E  S S E.  S  S S  S S S S
-----------------------------|---------------------------------|
---------6-----6-----5-------|---------------------------------|
------------5-----5----5---5-|---------------------------------|
-------------------------3---|-----------------5s-7-8s-7-5-5-5-|
--0-0-0----------------------|--3-3-3--3-3-3---3s-5-6s-5-3-3-3-|
--0-0-0----------------------|--3-3-3--3-3-3-------------------|


  S S  S S  S S S S
--------------------|
--------------------|
--------------------|
----5s-7-8s-7-5-5-5-|
----3s-5-6s-5-3-3-3-|
--------------------|

   S S  S S S S  S S S S  S S S S  S S
--------------------------------------|-------------------------------|
--------------------------------------|-------------------------------|
------10-------10-------10-------10---|------10-------10-------10-----|
----8----8---8----8---8----8---8----8-|----8----8---8----8---8----8---|
--6--------6--------8--------8--------|--9--------9--------9--------9-|
--------------------------------------|-------------------------------|
play 4 times

  S S  S S S S  S S S S  S S S S  S S
--------------------------------------|
--------------------------------------|
------10-------10-------10-------10---|
----8----8---8----8---8----8---8----8-|
--9--------9--------9--------9--------|
--------------------------------------|


   S  S  S  S  S  S  S  S  S  S  S  S  S  S  S  S
--------------------------------------------------|
--------------------------------------------------|
--10-10-10-10-10-10-10-10-10-10-10-10-10-10-10-10-|
---8--8--8--8--8--8--8--8--8--8--8--8--8--8--8--8-|
---6--6--6--6--6--6--6--6--8--8--8--8--8--8--8--8-|
--------------------------------------------------|


   S  S  S  S  S  S  S  S  S  S  S  S  S  S  S  S
--------------------------------------------------|
--------------------------------------------------|
--10-10-10-10-10-10-10-10-10-10-10-10-10-10-10-10-|
---8--8--8--8--8--8--8--8--8--8--8--8--8--8--8--8-|
---9--9--9--9--9--9--9--9--9--9--9--9--9--9--9--9-|
--------------------------------------------------|


   S  S  S  S  S  S  S  S  S  S  S  S  S  S  S  S
--------------------------------------------------|
--------------------------------------------------|
--10-10-10-10-10-10-10-10-10-10-10-10-10-10-10-10-|
---8--8--8--8--8--8--8--8--8--8--8--8--8--8--8--8-|
---6--6--6--6--6--6--6--6--8--8--8--8--8--8--8--8-|
--------------------------------------------------|


   S  S  S  S  S  S  S  S  S  S  S  S  S  S  S  S
--------------------------------------------------|
--------------------------------------------------|
--10-10-10-10-10-10-10-10-10-10-10-10-10-10-10-10-|
---8--8--8--8--8--8--8--8--8--8--8--8--8--8--8--8-|
---9--9--9--9--9--9--9--9--9--9--9--9--9--9--9--9-|
--------------------------------------------------|


   S  S  S  S  S  S  S  S  S  S  S  S  S  S  S  S
--------------------------------------------------|
--------------------------------------------------|
--10-10-10-10-10-10-10-10-10-10-10-10-10-10-10-10-|
---8--8--8--8--8--8--8--8--8--8--8--8--8--8--8--8-|
---6--6--6--6--6--6--6--6--8--8--8--8--8--8--8--8-|
--------------------------------------------------|


   S  S  S  S  S  S  S  S  S  S  S  S  S  S  S  S
--------------------------------------------------|
--------------------------------------------------|
--10-10-10-10-10-10-10-10-10-10-10-10-10-10-10-10-|
---8--8--8--8--8--8--8--8--8--8--8--8--8--8--8--8-|
---9--9--9--9--9--9--9--9--9--9--9--9--9--9--9--9-|
--------------------------------------------------|


   S  S  S  S  S  S  S  S  S  S  S  S  S  S  S  S
--------------------------------------------------|
--------------------------------------------------|
--10-10-10-10-10-10-10-10-10-10-10-10-10-10-10-10-|
---8--8--8--8--8--8--8--8--8--8--8--8--8--8--8--8-|
---6--6--6--6--6--6--6--6--8--8--8--8--8--8--8--8-|
--------------------------------------------------|


   S  S  S  S  S  S  S  S  S  S  S  S  S  S  S  S
--------------------------------------------------|
--------------------------------------------------|
--10-10-10-10-10-10-10-10-10-10-10-10-10-10-10-10-|
---8--8--8--8--8--8--8--8--8--8--8--8--8--8--8--8-|
---9--9--9--9--9--9--9--9--9--9--9--9--9--9--9--9-|
--------------------------------------------------|


  S S E  E  E  E  E  S S S S    S S E  S S E.  S  S S  S S S S
-----------------------------|---------------------------------|
---------6-----6-----5-------|---------------------------------|
------------5-----5----5---5-|---------------------------------|
-------------------------3---|-----------------5s-7-8s-7-5-5-5-|
--0-0-0----------------------|--3-3-3--3-3-3---3s-5-6s-5-3-3-3-|
--0-0-0----------------------|--3-3-3--3-3-3-------------------|


  S S E  E  E  E  E  S S S S    S S E  S S E.  S  S S S  S S S
-----------------------------|---------------------------------|
---------6-----6-----5-------|---------------------------------|
------------5-----5----5---5-|---------------------------------|
-------------------------3---|-----------------5s-7-7-8s-7-7-7-|
--0-0-0----------------------|--3-3-3--3-3-3---3s-5-5-6s-5-5-5-|
--0-0-0----------------------|--3-3-3--3-3-3-------------------|


  S S E  E  E  E  E  S S S S    S S E  S S E.  S  S S  S S S S
-----------------------------|---------------------------------|
---------6-----6-----5-------|---------------------------------|
------------5-----5----5---5-|---------------------------------|
-------------------------3---|-----------------5s-7-8s-7-5-5-5-|
--0-0-0----------------------|--3-3-3--3-3-3---3s-5-6s-5-3-3-3-|
--0-0-0----------------------|--3-3-3--3-3-3-------------------|


  S S E  E  E  E  E  S S S S    S S E  S S E.  S  S S S  S S S
-----------------------------|---------------------------------|
---------6-----6-----5-------|---------------------------------|
------------5-----5----5---5-|---------------------------------|
-------------------------3---|-----------------5s-7-7-8s-7-7-7-|
--0-0-0----------------------|--3-3-3--3-3-3---3s-5-5-6s-5-5-5-|
--0-0-0----------------------|--3-3-3--3-3-3-------------------|


  S S  S S S  S S S    S S E  E  E  E  E  S S S S
--------------------|-----------------------------|
--------------------|---------6-----6-----5-------|
--------------------|------------5-----5----5---5-|
----8s-7-5-8s-7-5-7-|-------------------------3---|
----6s-5-3-6s-5-3-5-|--0-0-0----------------------|
--------------------|--0-0-0----------------------|


  S S E  S S E.  S  S S  S S S S    S S E  E  E  E  E  S S S S
---------------------------------|-----------------------------|
---------------------------------|---------6-----6-----5-------|
---------------------------------|------------5-----5----5---5-|
-----------------5s-7-8s-7-5-5-5-|-------------------------3---|
--3-3-3--3-3-3---3s-5-6s-5-3-3-3-|--0-0-0----------------------|
--3-3-3--3-3-3-------------------|--0-0-0----------------------|


  S S E  S S E.  S  S S S  S S S    S S E  E  E  E  E  S S S S
---------------------------------|-----------------------------|
---------------------------------|---------6-----6-----5-------|
---------------------------------|------------5-----5----5---5-|
-----------------5s-7-7-8s-7-7-7-|-------------------------3---|
--3-3-3--3-3-3---3s-5-5-6s-5-5-5-|--0-0-0----------------------|
--3-3-3--3-3-3-------------------|--0-0-0----------------------|


  S S E  S S E.  S  S S  S S S S    S S E  E  E  E  E  S S S S
---------------------------------|-----------------------------|
---------------------------------|---------6-----6-----5-------|
---------------------------------|------------5-----5----5---5-|
-----------------5s-7-8s-7-5-5-5-|-------------------------3---|
--3-3-3--3-3-3---3s-5-6s-5-3-3-3-|--0-0-0----------------------|
--3-3-3--3-3-3-------------------|--0-0-0----------------------|


  S S E  S S E.  S  S S S  S S S     W                   W
---------------------------------|--------------------|-------------------|
---------------------------------|--------------------|-------------------|
---------------------------------|--10----------------|-------------------|
-----------------5s-7-7-8s-7-7-7-|---8----------------|-------------------|
--3-3-3--3-3-3---3s-5-5-6s-5-5-5-|---9----------------|-------------------|
--3-3-3--3-3-3-------------------|--------------------|-------------------|


S S  S S S S  S S S S  S S S S  S S    S S  S S S S  S S S S  S S S S  S S
------------------------------------|--------------------------------------|
------------------------------------|--------------------------------------|
----10-------10-------10-------10---|------10-------10-------10-------10---|
--8----8---8----8---8----8---8----8-|----8----8---8----8---8----8---8----8-|
6--------6--------8--------8--------|--9--------9--------9--------9--------|
------------------------------------|--------------------------------------|
^play 10 times


   S  S  S  S  S  S  S  S  S  S  S  S  S  S  S  S
--------------------------------------------------|
--------------------------------------------------|
--10-10-10-10-10-10-10-10-10-10-10-10-10-10-10-10-|
---8--8--8--8--8--8--8--8--8--8--8--8--8--8--8--8-|
---6--6--6--6--6--6--6--6--8--8--8--8--8--8--8--8-|\
--------------------------------------------------| \
                                                     \
                                                      > play
   S  S  S  S  S  S  S  S  S  S  S  S  S  S  S  S    /  until it fades out
--------------------------------------------------| /   (roughly 27 times)
--------------------------------------------------|/
--10-10-10-10-10-10-10-10-10-10-10-10-10-10-10-10-|
---8--8--8--8--8--8--8--8--8--8--8--8--8--8--8--8-|
---9--9--9--9--9--9--9--9--9--9--9--9--9--9--9--9-|
--------------------------------------------------|


   S  S  S  S  S  S  S  S  S  S  S  S  S  S  S  S    W
--------------------------------------------------|-------------------||
--------------------------------------------------|-------------------||
--10-10-10-10-10-10-10-10-10-10-10-10-10-10-10-10-|-------------------||
---8--8--8--8--8--8--8--8--8--8--8--8--8--8--8--8-|-------------------||
---6--6--6--6--6--6--6--6--8--8--8--8--8--8--8--8-|-------------------||
--------------------------------------------------|-------------------||
play this at the part at the very
end where you can barely here it

THE END!!!! hope u enjoyed it, im pretty sure its 100% correct...and its a bit long, 
comment, constructive critism is accepted
thanks

Duration Legend
---------------
W - whole
H - half
Q - quarter
E - 8th
S - 16th
T - 32nd
X - 64th
. - note dotted
|-n-|  - n-tuplets


Tablature Legend
----------------
x - dead note
g - grace note
(n) - ghost note
> - accentuded note
NH - natural harmonic
AH - artificial harmonic
TH - tapped harmonic
SH - semi harmonic
PH - pitch harmonic
h - hammer on
p - pull off
b - bend
br - bendRelease
pb - preBend
pbr - preBendRelease
brb - bendReleaseBend
\n/ - tremolo bar dip
\n - tremolo bar dive
-/n - tremolo bar Release up
/n\ - tremolo bar inverted dip
/n - tremolo bar return
-\n - tremolo bar Release down
S - shift slide
s - legato slide
/ -  slide into from below or out of upwards
\ -  slide into from above or out of downwards
~ - vibrato
W - wide vibrato
tr - trill
TP - tremolo picking
T - tapping
S - slap
P - pop
< - fade in
^ - brush up
v - brush down





Comments


Popular Mudvayne tabs & chords
Dig 7 Bass Tabs
Everything And Nothing 3 Bass Tabs
Forget To Remember Bass Tabs
Internal Primates Forever Bass Tabs
Choices Intro Tabs
Have It Your Way Tabs
Imn Tabs
L.D.50 All Word To It Tabs
Scarlet Letters 1 Tabs
Severed Tabs


Song lyrics



↑ Back to top | Tablatures and chords are parodies/interpretations of the original songs. You may use it for private study, scholarship, research or language learning purposes only
© 2014 AZChords.com Contact us | Privacy policy | DMCA | Add/correct tabs | Request tabs | Top 50 tabs