>
 >
A Cinderella Story 1

A Cinderella Story 1 Bass Tabs

Mudvayne - A Cinderella Story 1 chords, tabs, tablatures, lyrics

Guitar lessons | Add/correct | Request | Top 50 tabs Artists:  A B C D E F G H I J K L M N O P Q R S T U V W X Y Z 0-9

A Cinderella Story 1 Bass Tabs – Mudvayne

CD, Sheet music, Poster

Do you like A Cinderella Story 1? Share with your friends now
Bass TabsBass Tabs v2Tabs
if what I'm hearing so far is agreed with the rest of you as accurate.



Iím hearing a different voicing than yr other tab:

Verse 1

F:-------20--------------------20--------------------------------]
C:----------19--------------19---19-------------------19---------]
G:----19---------------------------------------------19----------]
C:--0-----------0-0-------------------0-----------0--------------]
G:---------------------------------------------------------------]

 F:-------20-------------------20-------------------------------]
C:----------19--------------19---19-------------------17--------]
G:----19---------------------------------------------17---------]
C:--0-----------0-0-------------------0-----------0-------------]
G:--------------------------------------------------------------]

1st ending, 1st verse

F:-------20--------------------20------------------------------]
C:----------19--------------19---19-------------------19-------]
G:----19---------------------------------------------19--------]
C:--0-----------0-0-------------------0-0---------0------------]
G:-------------------------------------------------------------]

F-------8-------8--------6----6--------6-8------------------]
C-------------5--------------5--5--5-7-----5-7--------------]
G--7-7---7-------7--5-5--5--------------------5-7-----------]
C-----------------------------------------------------------]
G-----------------------------------------------------------]

2nd ending, 1st verse
F:-------20--------------------20------------------------------------]
C:----------19--------------19---19-------------------19-------------]
G:----19---------------------------------------------19--------------]
C:--0-----------0-0-------------------0-----------0------------------]
G:-------------------------------------------------------------------]

F------------8----8------------6-----6-8---11-10------------------]
C----------5-----------------5---------------------10-------------]
G------7-7---7-----7---5-5-----5--------------------5-7-----------]
C-----------------------------------------------------------------]
G-----------------------------------------------------------------]

---------------------------------stop edit

F:---------------------------------|
C:-----------     -----------------|
G:--------3h5 3x  -----------------|
C:-0-----------------5--3--3h5h7h8-|
G:---------------------------------|
   Out of your sight...

F:-----------------|
C:-----------------|
G:-----------------|
C:0000----888--555-|
G:-----------------|
	You just leave me alone.

Chorus:
F:----------------------------------------------------|
C:----------------------------------------------------|
G:------8p7h8p7-10p8h10p8-/12~~~----10----------7-----|
C:-0000---------------------------8-----------5-------|
G:-------------------------------------10p8-------7p5-|

F:---------------------------------------------------|
C:---------------------------------------------------|
G:------8888-10p8h10p8-12p8h12p8---------/10~~-------|
C:-0000---------------------------8-------------8-10-|
G:----------------------------------10p8-------------|

F:----------------------------------------------------|
C:----------------------------------------------------|
G:------8888-10p8h10p8-12p8h12p8----10----------7-----|
C:-0000---------------------------8-----------5-------|
G:-------------------------------------10p8-------7p5-|

F:------------------------------------|
C:-----------     --------5--3--------|
G:--------3h5 3x  -3h5---5------------|
C:-0--------------------5--3--3h5h7h8-|
G:------------------------------------|

F:-
C:-------------------------------5---5p3--3----------|
G:-----3h5-----3h5--------------5--5-----3-----------|
C:-00-------00-------00---10\--5--------3----3-5h7h8-|
G:-

F:---15p14-------------------------14-15-17----------|
C:-12-----12--12-----------    -12-------------------|
G:---------------13p12-----  2x-------------13p12----|
C:--------------------12p10-----------------------12-|
G:---------------------------------------------------|


F:------------------------|
C:-----5---5p3--3---------|
G:----5-5------3----------|
C:--5---------3----3-5h0--|
G:------------------------|

Chorus 2


F:----------------------------------------------------|
C:----------------------------------------------------|
G:------8/7\8---10\8/10---12~----8-------/10~~--------|
C:-0000------------------------8---10-8--------0-8-10-|
G:----------------------------------------------------|

F:----------------------------------------------------|
C:----------------------------------------------------|
G:------8/7\8---10\8/10---12~-------10----------7-----|
C:-0000---------------------------8-----------5-------|
G:-------------------------------------10p8-------7p5-|

F:----------------------------------------------------|
C:----------------------------------------------------|
G:------8/7\8---10\8/10---12~----8-------/10~~--------|
C:-0000------------------------8---10-8--------0-8-10-|
G:----------------------------------------------------|

F:----------------------------------------------------|
C:----------------------------------------------------|
G:------8/7\8---10\8/10---12~-------10----------7-----|
C:-0000---------------------------8-----------5-------|
G:-------------------------------------10p8-------7p5-|


F:-------------------|
C:-------------------|
G:---10-------10-----|
C:-8--------10-------|
G:----10p8------10p8-|


Bridge

F:----------------------------------------------|
C:--------------12-10-8-7-----------------------|
G:-------------------------10-8--7-5-3-1-0-3h5--|
C:----------------------------------------------|
G:-0--------------------------------------------|


F:---15p14------------------------|
C:-12------12--12-----------------|
G:---------------12p10------------|  2x
C:--------------------0-10h12-----|
G:--------------------------------|

F:-------------------------------|
C:-12-10-8-7---------------------|
G:-----------10-8--7-5-3-1-0-3h5-|
C:-------------------------------|
G:-------------------------------|

F:-------------------------------------------------|
C:-------------------------------------------------|
G:-------------------------------------------------| 3x
C:-------------------------333-333-33--------------|
G:-555-555--55--555-555-55-------------333-333-33--|

F:------------------------|
C:------------------------|
G:------------------------|
C:-5555----888-555-5/10\--|
G:------------------------|


F:----------------------------------------------------|
C:----------------------------------------------------|
G:------8/7\8---10\8/10---12~----8-------/10~~--------|
C:-0000------------------------8---10-8--------0-8-10-|
G:----------------------------------------------------|

F:----------------------------------------------------|
C:----------------------------------------------------|
G:------8/7\8---10\8/10---12~-------10----------7-----|
C:-0000---------------------------8-----------5-------|
G:-------------------------------------10p8-------7p5-|

F:----------------------------------------------------|
C:----------------------------------------------------|
G:------8/7\8---10\8/10---12~----8-------/10~~--------|
C:-0000------------------------8---10-8--------0-8-10-|
G:----------------------------------------------------|

F:----------------------------------------------------|
C:----------------------------------------------------|
G:------8/7\8---10\8/10---12~-------10----------7-----|
C:-0000---------------------------8-----------5-------|
G:-------------------------------------10p8-------7p5-|

-----------------begin edit

F:-------------------------------------------]
C:-------------------------------------------]
G:-------------------------------------------]this line and next till end
C: 0000-0000--0---0000-0000---0--------------]
G: ----------3---------------3---------------]

F:------------------------------------------]
C:------------------------------------------]
G:------------------------------------------]
C: 3333-3333--3-----------------------------]
G: ----------3----3333-3333-3-3-------------]

END

+--------------------------------------------------------------------------+
| or research.                                                             |
+--------------------------------------------------------------------------+





Comments


Popular Mudvayne tabs & chords
Rain Sun Gone Bass Tabs
World So Cold 3 Bass Tabs
Fall Into Sleep Chords
Choices Tabs
Cultivate Tabs
Determined Tabs
Forget To Remember 2 Tabs
Happy Tabs
Know Forever 1 Tabs
Not Falling Tabs


Song lyrics



↑ Back to top | Tablatures and chords are parodies/interpretations of the original songs. You may use it for private study, scholarship, research or language learning purposes only
© 2014 AZChords.com Contact us | Privacy policy | DMCA | Add/correct tabs | Request tabs | Top 50 tabs