» » »

A Cinderella Story Bass tabs (ver.1)

Artists:  A B C D E F G H I J K L M N O P Q R S T U V W X Y Z # 

A Cinderella Story Bass tabs (ver.1)

Mudvayne
Rating:
0/5 (0 votes)

Hard to play? Try these video lessons and learn fast.
                I figured I'd give this song a shot..it's an amazing song and Ryan puts his signature touch on it.

I'm sure there are some wrong parts (missing a couple notes possible on bass walk up) 
this should pave the way for a better tab.

Verse 1

F:-15-14--------14-12----------------------------------------------------------------|
C:-------12-----------12/10--------------------12-12-10-----------10-12--------------|
G:---------------------------------  3x -10-------------12-10-12--------10-12--------|
C:--------------------------0-10-12     --------------------------------------10-12--|
G:-----------------------------------------------------------------------------------|

F:---------------------------------|
C:-----------     -----------------|
G:--------3h5 3x  -----------------|
C:-0-----------------5--3--3h5h7h8-|
G:---------------------------------|
   Out of your sight...

F:-----------------|
C:-----------------|
G:-----------------|
C:0000----888--555-|
G:-----------------|
	You just leave me alone.

Chorus:
F:----------------------------------------------------|
C:----------------------------------------------------|
G:------8p7h8p7-10p8h10p8-/12~~~----10----------7-----|
C:-0000---------------------------8-----------5-------|
G:-------------------------------------10p8-------7p5-|

F:---------------------------------------------------|
C:---------------------------------------------------|
G:------8888-10p8h10p8-12p8h12p8---------/10~~-------|
C:-0000---------------------------8-------------8-10-|
G:----------------------------------10p8-------------|

F:----------------------------------------------------|
C:----------------------------------------------------|
G:------8888-10p8h10p8-12p8h12p8----10----------7-----|
C:-0000---------------------------8-----------5-------|
G:-------------------------------------10p8-------7p5-|

F:------------------------------------|
C:-----------     --------5--3--------|
G:--------3h5 3x  -3h5---5------------|
C:-0--------------------5--3--3h5h7h8-|
G:------------------------------------|

F:-
C:-------------------------------5---5p3--3----------|
G:-----3h5-----3h5--------------5--5-----3-----------|
C:-00-------00-------00---10\--5--------3----3-5h7h8-|
G:-

F:---15p14-------------------------14-15-17----------|
C:-12-----12--12-----------    -12-------------------|
G:---------------13p12-----  2x-------------13p12----|
C:--------------------12p10-----------------------12-|
G:---------------------------------------------------|


F:------------------------|
C:-----5---5p3--3---------|
G:----5-5------3----------|
C:--5---------3----3-5h0--|
G:------------------------|

Chorus 2

F:----------------------------------------------------|
C:----------------------------------------------------|
G:------8/7\8---10\8/10---12~----8-------/10~~--------|
C:-0000------------------------8---10-8--------0-8-10-|
G:----------------------------------------------------|

F:----------------------------------------------------|
C:----------------------------------------------------|
G:------8/7\8---10\8/10---12~-------10----------7-----|
C:-0000---------------------------8-----------5-------|
G:-------------------------------------10p8-------7p5-|

F:----------------------------------------------------|
C:----------------------------------------------------|
G:------8/7\8---10\8/10---12~----8-------/10~~--------|
C:-0000------------------------8---10-8--------0-8-10-|
G:----------------------------------------------------|

F:----------------------------------------------------|
C:----------------------------------------------------|
G:------8/7\8---10\8/10---12~-------10----------7-----|
C:-0000---------------------------8-----------5-------|
G:-------------------------------------10p8-------7p5-|


F:-------------------|
C:-------------------|
G:---10-------10-----|
C:-8--------10-------|
G:----10p8------10p8-|


Bridge

F:----------------------------------------------|
C:--------------12-10-8-7-----------------------|
G:-------------------------10-8--7-5-3-1-0-3h5--|
C:----------------------------------------------|
G:-0--------------------------------------------|


F:---15p14------------------------|
C:-12------12--12-----------------|
G:---------------12p10------------|  2x
C:--------------------0-10h12-----|
G:--------------------------------|

F:-------------------------------|
C:-12-10-8-7---------------------|
G:-----------10-8--7-5-3-1-0-3h5-|
C:-------------------------------|
G:-------------------------------|

F:-------------------------------------------------|
C:-------------------------------------------------|
G:-------------------------------------------------| 3x
C:-------------------------333-333-33--------------|
G:-555-555--55--555-555-55-------------333-333-33--|

F:------------------------|
C:------------------------|
G:------------------------|
C:-5555----888-555-5/10\--|
G:------------------------|


F:----------------------------------------------------|
C:----------------------------------------------------|
G:------8/7\8---10\8/10---12~----8-------/10~~--------|
C:-0000------------------------8---10-8--------0-8-10-|
G:----------------------------------------------------|

F:----------------------------------------------------|
C:----------------------------------------------------|
G:------8/7\8---10\8/10---12~-------10----------7-----|
C:-0000---------------------------8-----------5-------|
G:-------------------------------------10p8-------7p5-|

F:----------------------------------------------------|
C:----------------------------------------------------|
G:------8/7\8---10\8/10---12~----8-------/10~~--------|
C:-0000------------------------8---10-8--------0-8-10-|
G:----------------------------------------------------|

F:----------------------------------------------------|
C:----------------------------------------------------|
G:------8/7\8---10\8/10---12~-------10----------7-----|
C:-0000---------------------------8-----------5-------|
G:-------------------------------------10p8-------7p5-|


F:-------------------------------------------------|
C:-------------------------------------------------|
G:-------------------------------------------------| 2x
C:-------------------------333-333-33--------------|
G:-555-555--55--555-555-55-------------333-333-33--|

F:-----------------------------------------------------|
C:-----------------------------------------------------|
G:-----------------------------------------------------| till end
C:------------------------------333-333-33-------------|
G:-555\-/555\--/55\--555-555-55-------------333-333-33-|
            
Hard to play? Try these video lessons and learn fast. | Correct




comments powered by Disqus
↑ Back to top | Tablatures and chords are parodies/interpretations of the original songs. You may use it for private study, scholarship, research or language learning purposes only