>
 >
A Cinderella Story

A Cinderella Story Guitar Tabs

Mudvayne - A Cinderella Story chords, tabs, tablatures, lyrics

Guitar lessons | Add/correct | Request | Top 50 tabs Artists:  A B C D E F G H I J K L M N O P Q R S T U V W X Y Z 0-9

A Cinderella Story Guitar Tabs – Mudvayne

CD, Sheet music, Poster

Do you like A Cinderella Story? Share with your friends now
Bass TabsBass Tabs v2Tabs
im almost 100% sure on this one as well as my other tab for Have It Your Way

Key:
let ring- ~~
vibrato- ~
palm mute- *


guitar 1, riff A, figure 1
D|-------------------------------------------------------------------|
A|-------------------------------------------------------------------|
F|----------10-----------10---------------10-------------------------|
C|----8-7-7----7-7-8-7-7----7-7-8---8-7-7----7-7h8-------------------|
G|-------------------------------------------------8h10h7h8----------|
C|-0~~----------------------------0~~-----------------------8h10-0~~-|

guitar 1, riff A, figure 2
D|-------------------------------------------------------------------|
A|-------------------------------------------------------------------|
F|----------10-----------10---------------10-------------------------|
C|----8-7-7----7-7-8-7-7----7-7-8---8-7-7----7-7h8-------------------|
G|------------------------------------------------------8-8-----8-8--|
C|-0~~----------------------------0~~---------------5-5-----5-5------|

D|---------------------|
A|---------------------|
F|---------------------|
C|---------------------|
G|------5-5-----5-5----|
C|--3-3-----3-3--------|

(2nd time)
D|-------------------------------------------------------------------|
A|-------------------------------------------------------------------|
F|----------10-----------10---------------10-------------------------|
C|----8-7-7----7-7-8-7-7----7-7-8---8-7-7----7-7h8-------------------|
G|-------------------------------------------------8h10h7h8----------|
C|-0~~----------------------------0~~-----------------------8h10-0~~-|

guitar 1, riff A, figure 2
D|-------------------------------------------------------------------|
A|-------------------------------------------------------------------|
F|----------10-----------10---------------10-------------------------|
C|----8-7-7----7-7-8-7-7----7-7-8---8-7-7----7-7h8-------------------|
G|------------------------------------------------------8-8-----8-8--|
C|-0~~----------------------------0~~---------------5-5-----5-5------|

D|--------------------------------------|
A|--------------------------------------|
F|--------------------------------------|
C|--------------------------3h5---------|
G|------5-5-----5-5-----3h5-----3h5-----|
C|--3-3-----3-3-----3-3-------------0~~-|

(3rd time)
D|-------------------------------------------------------------------|
A|-------------------------------------------------------------------|
F|----------10-----------10---------------10-------------------------|
C|----8-7-7----7-7-8-7-7----7-7-8---8-7-7----7-7h8-------------------|
G|-------------------------------------------------8h10h7h8----------|
C|-0~~----------------------------0~~-----------------------8h10-0~~-|

guitar 1, riff A, figure 2
D|-------------------------------------------------------------------|
A|-------------------------------------------------------------------|
F|----------10-----------10---------------10-------------------------|
C|----8-7-7----7-7-8-7-7----7-7-8---8-7-7----7-7h8-------------------|
G|------------------------------------------------------8-8-----8-8--|
C|-0~~----------------------------0~~---------------5-5-----5-5------|

D|---------------------|
A|---------------------|
F|---------------------|
C|---------------------|
G|------5-5-----5-5----|
C|--3-3-----3-3--------|

(4th time)
D|-------------------------------------------------------------------|
A|-------------------------------------------------------------------|
F|----------10-----------10---------------10-------------------------|
C|----8-7-7----7-7-8-7-7----7-7-8---8-7-7----7-7h8-------------------|
G|-------------------------------------------------8h10h7h8----------|
C|-0~~----------------------------0~~-----------------------8h10-0~~-|

guitar 1, riff A, figure 2
D|-------------------------------------------------------------------|
A|-------------------------------------------------------------------|
F|----------10-----------10---------------10-------------------------|
C|----8-7-7----7-7-8-7-7----7-7-8---8-7-7----7-7h8-------------------|
G|------------------------------------------------------8-8-----8-8--|
C|-0~~----------------------------0~~---------------5-5-----5-5------|

D|---------------------|
A|---------------------|
F|---------------------|
C|---------------------|
G|------5-5-----5-5----|
C|--3-3-----3-3--------|

chorus
D|---------------------------------------------------------------------|
A|---------------------------------------------------------------------|
F|----------10101010/12121212/14141414-----------12\10----------9/10\9-|
C|----------x-x-x-x--x-x-x-x--x-x-x-x---10101010-x--x--7-7-7-7--x-x--x-|
G|-0-0-0-0--8-8-8-8-/10101010/12121212--8-8-8-8--10\8--5-5-5-5--7/8-\7-|
C|-0-0-0-0------------------------------8-8-8-8--------5-5-5-5---------|
   * * * *                              * * * *        * * * *
2nd time without P.M.
D|---------------------------------------------------------------------|
A|---------------------------------------------------------------------|
F|----------10101010/12121212/14141414-----------12\10----------9/10\9-|
C|----------x-x-x-x--x-x-x-x--x-x-x-x---10101010-x--x--7-7-7-7--x-x--x-|
G|-0-0-0-0--8-8-8-8-/10101010/12121212--8-8-8-8--10\8--5-5-5-5--7/8-\7-|
C|-0-0-0-0------------------------------8-8-8-8--------5-5-5-5---------|

3rd time (only first time w/p.m.)
D|---------------------------------------------------------------------|
A|---------------------------------------------------------------------|
F|----------10101010/12121212/14141414-----------12\10----------9/10\9-|
C|----------x-x-x-x--x-x-x-x--x-x-x-x---10101010-x--x--7-7-7-7--x-x--x-|
G|-0-0-0-0--8-8-8-8-/10101010/12121212--8-8-8-8--10\8--5-5-5-5--7/8-\7-|
C|-0-0-0-0------------------------------8-8-8-8--------5-5-5-5---------|

4th time
D|---------------------------------------------------------------------|
A|---------------------------------------------------------------------|
F|----------10101010/12121212/14141414-----------12\10----------9/10\9-|
C|----------x-x-x-x--x-x-x-x--x-x-x-x---10101010-x--x--7-7-7-7--x-x--x-|
G|-0-0-0-0--8-8-8-8-/10101010/12121212--8-8-8-8--10\8--5-5-5-5--7/8-\7-|
C|-0-0-0-0------------------------------8-8-8-8--------5-5-5-5---------|

back to riff A, w/dist.
D|-------------------------------------------------------------------|
A|-------------------------------------------------------------------|
F|----------10-----------10---------------10-------------------------|
C|----8-7-7----7-7-8-7-7----7-7-8----8-7-7----7-7h8------------------|
G|-------------------------------------------------8h10h7h8----------|
C|-00-----------------------------00------------------------8h10-0~~-|
p.m.

D|-------------------------------------------------------------------|
A|-------------------------------------------------------------------|
F|----------10-----------10---------------10-------------------------|
C|----8-7-7----7-7-8-7-7----7-7-8----8-7-7----7-7h8------------------|
G|------------------------------------------------------8-8-----8-8--|
C|-00-----------------------------00----------------5-5-----5-5------|
p.m.

D|---------------------|
A|---------------------|
F|---------------------|
C|---------------------|
G|------5-5-----5-5----|
C|--3-3-----3-3--------|
p.m.

2nd time...
D|-------------------------------------------------------------------|
A|-------------------------------------------------------------------|
F|----------10-----------10---------------10-------------------------|
C|----8-7-7----7-7-8-7-7----7-7-8----8-7-7----7-7h8------------------|
G|-------------------------------------------------8h10h7h8----------|
C|-00-----------------------------00------------------------8h10-00--|
p.m.

D|-------------------------------------------------------------------|
A|-------------------------------------------------------------------|
F|----------10-----------10---------------10-------------------------|
C|----8-7-7----7-7-8-7-7----7-7-8----8-7-7----7-7h8------------------|
G|------------------------------------------------------8-8-----8-8--|
C|-00-----------------------------00----------------5-5-----5-5------|
p.m.

D|--------------------------------------|
A|--------------------------------------|
F|--------------------------------------|
C|--------------------------3h5---------|
G|------5-5-----5-5-----3h5-----3h5-----|
C|--3-3-----3-3-----3-3-------------00--|
p.m.

3rd time...
D|-------------------------------------------------------------------|
A|-------------------------------------------------------------------|
F|----------10-----------10---------------10-------------------------|
C|----8-7-7----7-7-8-7-7----7-7-8----8-7-7----7-7h8------------------|
G|-------------------------------------------------8h10h7h8----------|
C|-00-----------------------------00------------------------8h10-00--|
p.m.

D|-------------------------------------------------------------------|
A|-------------------------------------------------------------------|
F|-----------10-----------10---------------10------------------------|
C|----8-7-7----7-7-8-7-7----7-7-8----8-7-7----7-7h8------------------|
G|------------------------------------------------------8-8-----8-8--|
C|-00-----------------------------00----------------5-5-----5-5------|
p.m.

D|---------------------|
A|---------------------|
F|---------------------|
C|---------------------|
G|------5-5-----5-5----|
C|--3-3-----3-3--------|
p.m.

chorus...
D|---------------------------------------------------------------------|
A|---------------------------------------------------------------------|
F|----------10101010/12121212/14141414-----------12\10----------9/10\9-|
C|----------x-x-x-x--x-x-x-x--x-x-x-x---10101010-x--x--7-7-7-7--x-x--x-|
G|-0-0-0-0--8-8-8-8-/10101010/12121212--8-8-8-8--10\8--5-5-5-5--7/8-\7-|
C|-0-0-0-0------------------------------8-8-8-8--------5-5-5-5---------|

2nd time
D|---------------------------------------------------------------------|
A|---------------------------------------------------------------------|
F|----------10101010/12121212/14141414-----------12\10----------9/10\9-|
C|----------x-x-x-x--x-x-x-x--x-x-x-x---10101010-x--x--7-7-7-7--x-x--x-|
G|-0-0-0-0--8-8-8-8-/10101010/12121212--8-8-8-8--10\8--5-5-5-5--7/8-\7-|
C|-0-0-0-0------------------------------8-8-8-8--------5-5-5-5---------|

3rd time
D|---------------------------------------------------------------------|
A|---------------------------------------------------------------------|
F|----------10101010/12121212/14141414-----------12\10----------9/10\9-|
C|----------x-x-x-x--x-x-x-x--x-x-x-x---10101010-x--x--7-7-7-7--x-x--x-|
G|-0-0-0-0--8-8-8-8-/10101010/12121212--8-8-8-8--10\8--5-5-5-5--7/8-\7-|
C|-0-0-0-0------------------------------8-8-8-8--------5-5-5-5---------|

4th time
D|--------------------------------------------------------------------|
A|--------------------------------------------------------------------|
F|----------10101010/12121212/14141414-----------10/12---------9/10\9-|
C|----------x-x-x-x--x-x-x-x--x-x-x-x---10101010-x--x--7-7-7-7-x-x--x-|
G|-0-0-0-0--8-8-8-8-/10101010/12121212--8-8-8-8--8/10--5-5-5-5-7/8-\7-|
C|-0-0-0-0------------------------------8-8-8-8--------5-5-5-5--------|

D|-------------------------------------|
A|-------------------------------------|
F|--10101010--10101010-----------9-9-9-|
C|--x-x-x-x---x-x-x-x---5-5-5-5--x-x-x-|
G|--8-8-8-8---8-8-8-8---5-5-5-5--7-7-7-|
C|----------------------5-5-5-5--------|
bridge, clean tone...
D|-----------------------------------------------------------------|
A|-----------------------------------------------------------------|
F|----2---2---2---2---5---5---2---2---7---7---5---5---2---2--p.h.5-|
C|--0---0---0---0---0---0---0---0---0---0---0---0---0---0---0------|
G|-----------------------------------------------------------------|
C|-----------------------------------------------------------------|

D|-----------------------------------------------------------------|
A|-----------------------------------------------------------------|
F|--------2---2---2---2---2---2---2---2----------0---0---0---0~~---|
C|--0-2-3---3---3---3---3---3---3---3---3-2-0--0---0---0---0~~-----|
G|-----------------------------------------------------------------|
C|-----------------------------------------------------------------|
                                                           REPEAT 3X

D|------------------------------------------------------|
A|------------------------------------------------------|
F|--14-14-14-14-14-14-14-14-12-12-12-12-12-12-12-12-----|  repeat 2x
C|--12-12-12-12-12-12-12-12-10-10-10-10-10-10-10-10-----|
G|--------------------------10-10-10-10-0--0--0--0------|
C|------------------------------------------------------|

D|----------------------------------------------------|
A|----------------------------------------------------|
F|----------10101010/12121212/14141414----------------|
C|----------x-x-x-x--x-x-x-x--x-x-x-x---101010--7-7-7-|
G|-0-0-0-0--8-8-8-8-/10101010/12121212--8-8-8---5-5-5-|
C|-0-0-0-0------------------------------8-8-8---5-5-5-|
   * * * *                              * * *   * * *
1st time
D|---------------------------------------------------------------------|
A|---------------------------------------------------------------------|
F|----------10101010/12121212/14141414-----------12\10----------9/10\9-|
C|----------x-x-x-x--x-x-x-x--x-x-x-x---10101010-x--x--7-7-7-7--x-x--x-|
G|-0-0-0-0--8-8-8-8-/10101010/12121212--8-8-8-8--10\8--5-5-5-5--7/8-\7-|
C|-0-0-0-0------------------------------8-8-8-8--------5-5-5-5---------|

2nd time
D|---------------------------------------------------------------------|
A|---------------------------------------------------------------------|
F|----------10101010/12121212/14141414-----------12\10----------9/10\9-|
C|----------x-x-x-x--x-x-x-x--x-x-x-x---10101010-x--x--7-7-7-7--x-x--x-|
G|-0-0-0-0--8-8-8-8-/10101010/12121212--8-8-8-8--10\8--5-5-5-5--7/8-\7-|
C|-0-0-0-0------------------------------8-8-8-8--------5-5-5-5---------|

3rd time
D|---------------------------------------------------------------------|
A|---------------------------------------------------------------------|
F|----------10101010/12121212/14141414-----------12\10----------9/10\9-|
C|----------x-x-x-x--x-x-x-x--x-x-x-x---10101010-x--x--7-7-7-7--x-x--x-|
G|-0-0-0-0--8-8-8-8-/10101010/12121212--8-8-8-8--10\8--5-5-5-5--7/8-\7-|
C|-0-0-0-0------------------------------8-8-8-8--------5-5-5-5---------|

4th time
D|---------------------------------------------------------------------|
A|---------------------------------------------------------------------|
F|----------10101010/12121212/14141414-----------12\10----------9/10\9-|
C|----------x-x-x-x--x-x-x-x--x-x-x-x---10101010-x--x--7-7-7-7--x-x--x-|
G|-0-0-0-0--8-8-8-8-/10101010/12121212--8-8-8-8--10\8--5-5-5-5--7/8-\7-|
C|-0-0-0-0------------------------------8-8-8-8--------5-5-5-5---------|

final time...
D|-------------------------------------|
A|-------------------------------------|
F|--10101010--10101010-----------9-9-9-|
C|--x-x-x-x---x-x-x-x---5-5-5-5--x-x-x-|
G|--8-8-8-8---8-8-8-8---5-5-5-5--7-7-7-|
C|----------------------5-5-5-5--------|

D|----10101010-10101010--10-10101010-10101010--10-|
A|----9-9-9-9--9-9-9-9---9--9-9-9-9--9-9-9-9---9--|
F|----7-7-7-7--7-7-7-7---7--7-7-7-7--7-7-7-7---7--|
C|--0------------------0---------------------0----|
G|--0------------------0---------------------0----|
C|--0------------------0---------------------0----|
    *                  *                     *
D|----8-8-8-8--8-8-8-8---8-8-8-8-8--8-8-8-8---8-|
A|----7-7-7-7--7-7-7-7---7-7-7-7-7--7-7-7-7---7-|
F|----5-5-5-5--5-5-5-5---5-5-5-5-5--5-5-5-5---5-|
C|--0------------------0--------------------0---|
G|--0------------------0--------------------0---|
C|--0------------------0--------------------0---|     repeat until fade
    *                  *                    *

i hope that was accurate enough for you, feel free to comment or correct me

(Correction) this correction was made by a viewer who saw a few errors. if you also 
these errors or spot them, here are the corrections for those errors...
guitar 1, riff A, figure 1
D|--------------------------------------------------------------------|
A|--------------------------------------------------------------------|
F|----------10-----------10-----------------10------------------------|
C|----8-7-7----7-7-8-7-7----7-7-7-8---8-7-7----7-7-7h8----------------|
G|-----------------------------------------------------8h10-7h8-------|
C|-0~~------------------------------0~~-------------------------8h10--|

2) there were some leftovers, now it fits also the above length
guitar 1, riff A, figure 2
D|-------------------------------------------------------------------|
A|-------------------------------------------------------------------|
F|----------10-----------10------------------------------------------|
C|----8-7-7----7-7-8-7-7----7-7-7-8----------------------------------|
G|--------------------------------------8-8-----8-8-----5-5-----5-5--|
C|-0~~------------------------------5-5-----5-5-----3-3-----3-3------|

3) second time
D|-------------------------------------------------------------------|
A|-------------------------------------------------------------------|
F|----------10-----------10------------------------------------------|
C|----8-7-7----7-7-8-7-7----7-7-7-8-------------------------3h5------|
G|--------------------------------------8-8-----8-8-----3h5-----3h5--|
C|-0~~------------------------------5-5-----5-5-----3-3--------------|

4) missing another 7at the beginning of some of the riffs, but this time I could be 
(2nd time)
D|-------------------------------------------------------------------------|
A|-------------------------------------------------------------------------|
F|------------10-----------10-----------------10---------------------------|
C|----7-8-7-7----7-7-8-7-7----7-7-7-8---8-7-7----7-7-7h8-------------------|
G|-------------------------------------------------------8h10h7h8----------|
C|-0~~--------------------------------0~~-------------------------8h10-----|


|end|





Comments


Popular Mudvayne tabs & chords
Dull Boy 3 Bass Tabs
Live Bass Tabs
World So Cold 5-String Standard Bass Tabs
A World So Cold Tabs
Digggggggg Tabs
Fish Out Of Water Tabs
Not Falling 2 Tabs
Nothing To Gein 1 Tabs
Rain Sun Gone Intro Tabs
Tv Radio Tabs


Song lyrics



↑ Back to top | Tablatures and chords are parodies/interpretations of the original songs. You may use it for private study, scholarship, research or language learning purposes only
© 2014 AZChords.com Contact us | Privacy policy | DMCA | Add/correct tabs | Request tabs | Top 50 tabs