>
 >
Creatures 1

Creatures 1 Guitar Tabs

Motionless In White - Creatures 1 chords, tabs, tablatures, lyrics

Guitar lessons | Add/correct | Request | Top 50 tabs Artists:  A B C D E F G H I J K L M N O P Q R S T U V W X Y Z 0-9

Creatures 1 Guitar Tabs – Motionless In White

CD, Sheet music, Poster

Do you like Creatures 1? Share with your friends now
TabsTabs v2
0:00 - 0:12
D|-----------------------------------------------------------------------------|
A|-----------------------------------------------------------------------------|
F|-----------------------------------------------------------------------------|
C|0-----------000000-000000-00-00-00-00-000000-000000--------------------------|
G|0-----------000000-000000-00-00-00-00-000000-000000--------------------------|
C|0-----------000000-000000-00-00-00-00-000000-000000--------------------------|
              ...... ...... .. .. .. .. ...... ......
0:13 - 0:21 (this is slower than the first set of chugging)
D|-------------------------------------------------------------------------------|
A|-------------------------------------------------------------------------------|
F|-------------------------------------------------------------------------------|
C|000000-000000-00-00-00-00-000000-000000-00000000-------------------------------|
G|000000-000000-00-00-00-00-000000-000000-00000000-12*br-------------------------|
C|000000-000000-00-00-00-00-000000-000000-00000000-------------------------------|
  ...... ...... .. .. .. .. ...... ...... ........
0:22 - 0:40
D|-----------------------------------------------------------------------------|
A|-----------------------------------------------------------------------------|
F|-----------------------------------------------------------------------------|
C|000000-000000-00-00-00-00-000000-000000-000000------0---0---0---0------------|
G|000000-000000-00-00-00-00-000000-000000-000000------0---0---0---0------------|
C|000000-000000-00-00-00-00-000000-000000-000000------0---0---0---0------------|
  ...... ...... .. .. .. .. ...... ...... ......
0:41 - 0:51
D|-----------------------------------------------------------------------------|
A|-----------------------------------------------------------------------------|
F|-----------------------------------------------------------------------------|
C|----------8--5-6--------5--5--5h6p5p0-----------8--9-5--10--10--10--10--8-8--|
G|-8--8--8----------6--6-----------------8--8--8-------------------------------|
C|--00-00-00-00-0----00-00-00-00----------00-00-00-00-0----00-00-00-00-0-------|
    .. .. .. .. .    .. .. .. ..          .. .. .. .. .    .. .. .. .. .
0:52 - 1:02
D|-------------------------------------------------------------------------------|
A|-------------------------------------------------------------------------------|
F|-------------------------------------------------------------------------------|
C|----------8--5-6--------5--5--5h6p5p0-----------8--9-5--10--10--10--10--13-10--|
G|-8--8--8----------6--6-----------------8--8--8---------------------------------|
C|--00-00-00-00-0----00-00-00-00----------00-00-00-00-0----00-00-00-00-0---------|
    .. .. .. .. .    .. .. .. ..          .. .. .. .. .    .. .. .. .. .
1:03 - 1:20
D|---------------------------------------------------------------------------|
A|---------------------------------------------------------------------------|
F|---------------------------------------------------------------------------|
C|3~---3~----3-3-3~-----5~---5~----5-5-5~----0~---0~----000~----0---0----000~|
G|3~---3~----3-3-3~-----5~---5~----5-5-5~----0~---0~----000~----0---0----000~|
C|3~---3~----3-3-3~-----5~---5~----5-5-5~----0~---0~----000~----0---0----000~|

1:21 - 1:32
D|------------------------------------------------------------------------------|
A|------------------------------------------------------------------------------|
F|------------------------------------------------------------------------------|
C|0~---0~----0-0-0~-----3~---3~----3-3-3~-----1~---1~----111~----1~---1~----111~|
G|0~---0~----0-0-0~-----3~---3~----3-3-3~-----1~---1~----111~----1~---1~----111~|
C|0~---0~----0-0-0~-----3~---3~----3-3-3~-----1~---1~----111~----1~---1~----111~|

1:33 - 1:44
D|-----------------------------------------------------------------------------|
A|-----------------------------------------------------------------------------|
F|-----------------------------------------------------------------------------|
C|333333333333-555555555555-000000000000-0~-000000000000-0~--------------------|
G|333333333333-555555555555-000000000000-0~-000000000000-0~--------------------|
C|333333333333-555555555555-000000000000-0~-000000000000-0~--------------------|
                            ............   ............ 
1:45 - 1:59 (just the opens at the end are played 7 times)
D|---------------------------------------------------------------------------|
A|---------------------------------------------------------------------------|
F|---------------------------------------------------------------------------|
C|333333333333-111111111111-000000-------0-----------------------------------|
G|333333333333-111111111111-000000-(x7)--0-----------------------------------|
C|333333333333-111111111111-000000-------0-----------------------------------|
                            ......
2:00 - 2:14 (this whole part is played twice) (there not 1 and 0 there 10s)
D|----------------------------------------------------------------------------------------|
A|----------------------------------------------------------------------------------------|
F|----------------------------------------------------------------------------------------|
C|000000-000000-000000-0000000--000-------000-------10101010101010------------------------|
G|000000-000000-000000-0000000--000-13-10-000-13-10-10101010101010-8h10p8h10-7-7-7-7(x2)--|
C|000000-000000-000000-0000000--000---0---000---0---10101010101010------------------------|
  ...... ...... ...... .......  ...       ...        . . . . . . .
2:15 - 2:20 (Do only the last part 3 times)
D|-------------------------------------------------------------------------------------|
A|-------------------------------------------------------------------------------------|
F|-------------------------------------------------------------------------------------|
C|---------3p03p03p03p0----------3\5p05p05p0----------3\5p05p05p0----------3\5p05p05p0-|
G|00000000--------------00000000-------------88888888-------------88888888-------------|
C|00000000--------------00000000-------------88888888-------------88888888-------------|
  ........              ........             ........             ........
2:21 - 2:27 (only the last part is played twice)
D|------------------------------------------------------------------------------------------|
A|------------------------------------------------------------------------------------------|
F|------------------------------------------------------------------------------------------|
C|---------3p03p03p03p0----------3\5p05p05p0----------10p0---8p07p0----------10p0---8p07p0--|
G|00000000--------------00000000-------------88888888-----8p0-------88888888-----8p0--------|
C|00000000--------------00000000-------------88888888---------------88888888----------------|
  ........              ........             ........               ........
2:28 - 2:53 (the whole part is played twice)
D|----------------------------------------------------------------------------------|
A|----------------------------------------------------------------------------------|
F|----------------------------------------------------------------------------------|
C|0000000000000000--3333333333333333--0000000000000000--5555--7777--8888--10101010--|X2
G|0000000000000000--1111111111111111--0000000000000000--5555--7777--8888--10101010--|
C|0000000000000000--1111111111111111--0000000000000000--5555--7777--8888--10101010--|
2:54 - 3:19 (Whole part played 4 times)
D|---------------------------------------------------------------------------|
A|---------------------------------------------------------------------------|
F|---------------------------------------------------------------------------|
C|0-----0-----00-00000-00-00-------------------------------------------------|
G|0-----0-----00-00000-00-00-(x4)--------------------------------------------|
C|0-----0-----00-00000-00-00-------------------------------------------------|
  .     .     .. ..... .. ..
3:20 - 3:42 (whole part played twice)
D|------------------------------------------------------------------------------------------|
A|------------------------------------------------------------------------------------------|
F|------------------------------------------------------------------------------------------|
C|0~-0~-0~-0~-0~-0000~--0~-0~-0~-0~-0~55553333-(X2)-----0-----------------------------------|
G|0~-0~-0~-0~-0~-0000~--0~-0~-0~-0~-0~------------------0-(this is played at the very end)--|
C|0~-0~-0~-0~-0~-0000~--0~-0~-0~-0~-0~------------------0-----------------------------------|
  .  .  .  .  .  ....   .  .  .  .  . ........



***************

| /   slide up
| \   slide down
| h   hammer-on
| p   pull-off
| ~   vibrato
| +   harmonic
| .   Plam Mute
| b   Bend
| pb  Pre-bend
| br  Bend release
| pbr Pre-bend release
| brb Bend release bend

************************************





Comments


Popular Motionless In White tabs & chords
Abigail Bass Tabs
Black Damask The Fog Bass Tabs
Devils Night 2 Bass Tabs
Ghost In The Mirror Bass Tabs
Ghost In The Mirror Chords
A-m-e-r-i-c-a Tabs
Black Tabs
Devils Night Tabs
London In Terror Tabs
Undead Ahead Tabs


Song lyrics



↑ Back to top | Tablatures and chords are parodies/interpretations of the original songs. You may use it for private study, scholarship, research or language learning purposes only
© 2014 AZChords.com Contact us | Privacy policy | DMCA | Add/correct tabs | Request tabs | Top 50 tabs