>
 >
Abigail

Abigail Guitar Tabs

Motionless In White - Abigail chords, tabs, tablatures, lyrics

Guitar lessons | Add/correct | Request | Top 50 tabs Artists:  A B C D E F G H I J K L M N O P Q R S T U V W X Y Z 0-9

Abigail Guitar Tabs – Motionless In White

CD, Sheet music, Poster

Do you like Abigail? Share with your friends now
Bass TabsTabsUkulele
Tuning: Drop B


GUITAR 1


Intro/Breakdown:

      PM PM PM PM PM   PM PM PM PM    PM   PM PM  
C#||---------------------------------------------|
G#||---------------------------------------------|
E ||---------------------------------------------|
B ||---------------------------------------------|
F#||--0--0--0--0--0----0--0--0--0-----0----0--0--|
B ||--0--0--0--0--0----0--0--0--0-----0----0--0--|


  PM PM      PM PM   PM PM   PM PM          PM PM PM PM              
--------------------------------------|-----------------------------|
--------------------------------------|-----------------------------|
--------------------------------------|-----------------------------|
--------------------------------------|-----------------------------|
--0--0-------0--0----0--0----0--0-----|-----0--0--0--0--------------|
--0--0-------0--0----0--0----0--0-----|-----0--0--0--0-----------0--|


     PM PM PM        PM PM PM   PM      PM PM PM PM PM PM     
-------------------------------------|-----------------------|
-------------------------------------|-----------------------|
-------------------------------------|-----------------------|
-------------------------------------|-----------------------|
-----0--0--0---------0--0--0----0----|--0--0--0--0--0--0-----|
-----0--0--0---------0--0--0----0----|--0--0--0--0--0--0-----|


---------------------------|----------10---------------------|
---------------------------|--------------11--10-------------|
---------------------------|--10------------------10--9------|
--7-----7--10--9--7--------|------10---------------------11--|
-----7---------------7--8--|---------------------------------|
---------------------------|---------------------------------|


                              PM PM PM PM PM PM PM PM PM PM PM PM PM PM PM PM  
---------------------------|--------------------------------------------------|
---------------------------|--------------------------------------------------|
---------------------------|--------------------------------------------------|
--7-----7--10--9--7--------|--10-10-10-10-7--7--7--7--9--9--9--9--6--6--6--6--|
-----7---------------7--8--|--------------------------------------------------|
---------------------------|--------------------------------------------------|


---------------------------|----------10---------------------|
---------------------------|--------------11--10-------------|
---------------------------|--10------------------10--9------|
--7-----7--10--9--7--------|------10---------------------11--|
-----7---------------7--8--|---------------------------------|
---------------------------|---------------------------------|


                              PM PM PM PM PM PM PM PM PM PM PM PM PM PM PM PM  
---------------------------|--------------------------------------------------|
---------------------------|--------------------------------------------------|
---------------------------|--------------------------------------------------|
--7-----7--10--9--7--------|--10-10-10-10-7--7--7--7--9--9--9--9--6--6--6--6--|
-----7---------------7--8--|--------------------------------------------------|
---------------------------|--------------------------------------------------|




Bridge:

  PM PM PM PM PM        PM PM PM PM PM PM    PM PM PM PM PM PM PM PM     
------------------------------------------|-----------------------------|
------------------------------------------|-----------------------------|
------------------------------------------|-----------------------------|
------------------------------------------|-----------------------------|
--0--0--0--0--0---------0--0--0--0--0--0--|--0--0--0--0--0--0--0--0--0--|
--0--0--0--0--0---------0--0--0--0--0--0--|--0--0--0--0--0--0--0--0--0--|




Chorus:

     PM             PM          PM            PM     
--------------------------|-------------------------|
--------------------------|-------------------------|
--------------------------|-------------------------|
--------------------------|-------------------------|
--------4--5--5--4-----0--|--------5--7--4-------0--|
-----0--------------0--0--|-----0-------------0--0--|


                    PM        PM    PM PM                 
---------------------------|--------------------------|
---------------------------|--------------------------|
---------------------------|--------------------------|
---------------------------|-----7--------------------|
-----------7--8--7-----10--|--------------7--8--7--8--|
-----7--8-----------0------|--0-----0--0-----------8--|


     PM             PM          PM            PM     
--------------------------|-------------------------|
--------------------------|-------------------------|
--------------------------|-------------------------|
--------------------------|-------------------------|
--------4--5--5--4-----8--|--------5--7--4-------8--|
-----8--------------8--8--|-----8-------------8--8--|


                    PM        PM    PM PM              
---------------------------|--------------------------|
---------------------------|--------------------------|
---------------------------|--------------------------|
---------------------------|-----7--------------------|
-----------7--8--7-----10--|--------------7--8--7--0--|
-----7--8-----------8------|--8-----8--8-----------0--|


     PM             PM          PM            PM        
--------------------------|-------------------------|
--------------------------|-------------------------|
--------------------------|-------------------------|
--------------------------|-------------------------|
--------4--5--5--4-----0--|--------5--7--4-------0--|
-----0--------------0--0--|-----0-------------0--0--|


                    PM        PM    PM PM              
---------------------------|--------------------------|
---------------------------|--------------------------|
---------------------------|--------------------------|
---------------------------|-----7--------------------|
-----------7--8--7-----10--|--------------7--8--7--8--|
-----7--8-----------0------|--0-----0--0-----------8--|


     PM             PM          PM            PM     
--------------------------|-------------------------|
--------------------------|-------------------------|
--------------------------|-------------------------|
--------------------------|-------------------------|
--------4--5--5--4-----8--|--------5--7--4-------8--|
-----8--------------8--8--|-----8-------------8--8--|


                    PM        PM    PM PM                                
---------------------------|--------------------------|--------------|
---------------------------|--------------------------|--------------|
---------------------------|--------------------------|--------------|
---------------------------|-----7--------7--3--0--5--|--2--0--------|
-----------7--8--7-----10--|--------------------------|--------4--7--|
-----7--8-----------8------|--8-----8--8--------------|--------------|




Verse:

     PM PM    PM                                         
--------------------------|--10-------------------------|
--------------------------|------11--10--8--------------|
--------------------------|-----------------8--7--------|
--------------------7--8--|-----------------------8--5--|
--0--------5-----8--------|-----------------------------|
--0--0--0-----0-----------|-----------------------------|


     PM PM    PM                                              
--------------------------|----------------------------------|
--------------------------|----------------------------------|
--------------------------|----------------------------------|
-----------8-----7--5--0--|----------------------------------|
--5-----------------------|--4-4-4-4-5-5-5-5-7-7-7-7-8-8-8-8-|
-----0--0-----0-----------|----------------------------------|


     PM PM    PM                                         
--------------------------|--------------------------|
--------------------------|--------------------------|
--------------------------|--------------------------|
-----------8-----7--5--0--|--------------------------|
--5-----------------------|--5--7--5--0--4--7--4--0--|
-----0--0-----0-----------|--------------------------|


-------------------------------|-------------------------------|
-------------------------------|-------------------------------|
------------------------7h--9--|--10p--9--7--------------------|
-----------------7h--8---------|-------------8p--7-------------|
--5h--8--7h--10----------------|--------------------10p--8--7--|
-------------------------------|-------------------------------|


     PM    PM    PM    PM       PM    PM    PM    PM  
--------------------------|--------------------------|
--------------------------|--------------------------|
--------------------------|--------------------------|
--------------------------|--------5-----------------|
--5-----7-----8-----5-----|--7-----------8-----7-----|
-----0-----0-----0-----0--|-----0-----0-----0-----0--|


     PM    PM    PM    PM       PM    PM    PM    PM  
--------------------------|--------------------------|
--------------------------|--------------------------|
--------------------------|--------------------------|
--------------------------|--------7-----------------|
--4-----5-----7-----4-----|--5-----------8-----7-----|
-----0-----0-----0-----0--|-----0-----0-----0-----0--|


     PM    PM    PM    PM       PM    PM    PM    PM  
--------------------------|--------------------------|
--------------------------|--------------------------|
--------------------------|--------------------------|
--------------------------|--------5-----------------|
--5-----7-----8-----5-----|--7-----------8-----7-----|
-----0-----0-----0-----0--|-----0-----0-----0-----0--|


     PM    PM    PM    PM       PM    PM    PM    PM  
--------------------------|--------------------------|
--------------------------|--------------------------|
--------------------------|--------------------------|
--------------------------|--------7-----------------|
--4-----5-----7-----4-----|--5-----------8-----7-----|
-----0-----0-----0-----0--|-----0-----0-----0-----0--|


     PM    PM    PM    PM       PM    PM    PM    PM  
--------------------------|--------------------------|
--------------------------|--------------------------|
--------------------------|--------------------------|
--------------------------|--------5-----------------|
--5-----7-----8-----5-----|--7-----------8-----7-----|
-----0-----0-----0-----0--|-----0-----0-----0-----0--|


     PM    PM    PM    PM       PM    PM    PM    PM  
--------------------------|--------------------------|
--------------------------|--------------------------|
--------------------------|--------------------------|
--------------------------|--------7-----------------|
--4-----5-----7-----4-----|--5-----------8-----7-----|
-----0-----0-----0-----0--|-----0-----0-----0-----0--|


                 PM             PM                  
--------------------------|------------------------|
--------------------------|------------------------|
--------------------------|------------------------|
--7--8--7-----------------|------------------------|
-----------7--8--0--7--8--|--7--0--5--7--4---------|
--------------------------|------------------------|




Breakdown:

  PM PM PM PM PM PM    PM PM    PM PM PM  
-----------------------------------------|
-----------------------------------------|
-----------------------------------------|
-----------------------------------------|
--0--0--0--0--0--0-----0--0-----0--0--0--|
--0--0--0--0--0--0-----0--0-----0--0--0--|


  PM PM   PM   PM PM   PM PM    PM PM PM  
-----------------------------------------|
-----------------------------------------|
-----------------------------------------|
-----------------------------------------|
--0--0----0----0--0----0--0-----0--0--0--|
--0--0----0----0--0----0--0-----0--0--0--|


  PM PM PM PM PM PM    PM PM PM PM PM PM PM PM     
-----------------------------------------------|
-----------------------------------------------|
-----------------------------------------------|
-----------------------------------------------|
--0--0--0--0--0--0-----0--0--0--0--0--0--0--0--|
--0--0--0--0--0--0-----0--0--0--0--0--0--0--0--|


  PM PM   PM   PM PM   PM PM    PM PM     
-----------------------------------------|
-----------------------------------------|
-----------------------------------------|
-----------------------------------------|
--0--0----0----0--0----0--0-----0--0-----|
--0--0----0----0--0----0--0-----0--0-----|


  PM PM PM PM PM PM    PM PM    PM PM PM  
-----------------------------------------|
-----------------------------------------|
-----------------------------------------|
-----------------------------------------|
--0--0--0--0--0--0-----0--0-----0--0--0--|
--0--0--0--0--0--0-----0--0-----0--0--0--|


  PM PM   PM   PM PM   PM PM    PM     
--------------------------------------|
--------------------------------------|
--------------------------------------|
--------------------------------------|
--0--0----0----0--0----0--0-----0-----|
--0--0----0----0--0----0--0-----0-----|


  PM PM PM PM PM PM    PM PM PM PM PM PM PM PM  
-----------------------------------------------|
-----------------------------------------------|
-----------------------------------------------|
-----------------------------------------------|
--0--0--0--0--0--0-----0--0--0--0--0--0--0--0--|
--0--0--0--0--0--0-----0--0--0--0--0--0--0--0--|


  PM PM   PM   PM PM   PM PM             
----------------------------------------|
----------------------------------------|
----------------------------------------|
----------------------------------------|
--0--0----0----0--0----0--0-------------|
--0--0----0----0--0----0--0-----PH3~----|


  PM PM PM PM PM PM    PM PM    PM PM PM    PM PM        PM PM    PM PM     
-----------------------------------------|---------------------------------|
-----------------------------------------|---------------------------------|
-----------------------------------------|---------------------------------|
-----------------------------------------|---------------------------------|
--0--0--0--0--0--0-----0--0-----0--0--0--|--0--0---------0--0-----0--0-----|
--0--0--0--0--0--0-----0--0-----0--0--0--|--0--0---------0--0-----0--0-----|


     PM PM PM   PM PM PM PM   PM   PM PM      PM PM PM PM    PM PM PM PM        
-------------------------------------------|--------------------------------|
-------------------------------------------|--------------------------------|
-------------------------------------------|--------------------------------|
-------------------------------------------|--------------------------------|
-----0--0--0----0--0--0--0----0----0--0----|--0--0--0--0--0--0--0--0--0--0--|
-----0--0--0----0--0--0--0----0----0--0----|--1--1--1--1--1--1--1--1--1--1--|


  PM PM PM PM PM PM    PM PM    PM PM PM    PM PM        PM PM    PM PM     
-----------------------------------------|---------------------------------|
-----------------------------------------|---------------------------------|
-----------------------------------------|---------------------------------|
-----------------------------------------|---------------------------------|
--0--0--0--0--0--0-----0--0-----0--0--0--|--0--0---------0--0-----0--0-----|
--0--0--0--0--0--0-----0--0-----0--0--0--|--0--0---------0--0-----0--0-----|


     PM PM PM   PM PM PM PM   PM   PM PM      PM PM PM PM    PM PM PM PM     
-------------------------------------------|--------------------------------|
-------------------------------------------|--------------------------------|
-------------------------------------------|--------------------------------|
-------------------------------------------|--------------------------------|
-----0--0--0----0--0--0--0----0----0--0----|--0--0--0--0--0--0--0--0--0--0--|
-----0--0--0----0--0--0--0----0----0--0----|--1--1--1--1--1--1--1--1--1--1--|




                             Chorus:

                                  PM             PM     
-------------|--------------|--------------------------|
-------------|--------------|--------------------------|
-------------|--------------|--------------------------|
-------------|--7--5--3-----|--------------------------|
--0-0--------|-----------0--|--------4--5--5--4-----0--|
--0-0--------|-----------0--|-----0--------------0--0--|


     PM            PM                         PM      
-------------------------|---------------------------|
-------------------------|---------------------------|
-------------------------|---------------------------|
-------------------------|---------------------------|
--------5--7--4-------0--|-----------7--8--7-----10--|
-----0-------------0--0--|-----7--8-----------0------|


  PM    PM PM                   PM             PM          PM            PM        
--------------------------|--------------------------|-------------------------|
--------------------------|--------------------------|-------------------------|
--------------------------|--------------------------|-------------------------|
-----7--------------------|--------------------------|-------------------------|
--------------7--8--7--8--|--------4--5--5--4-----8--|--------5--7--4-------8--|
--0-----0--0-----------8--|-----8--------------8--8--|-----8-------------8--8--|


                    PM        PM    PM PM              
---------------------------|--------------------------|
---------------------------|--------------------------|
---------------------------|--------------------------|
---------------------------|-----7--------------------|
-----------7--8--7-----10--|--------------7--8--7--0--|
-----7--8-----------8------|--8-----8--8-----------0--|


     PM             PM          PM            PM        
--------------------------|-------------------------|
--------------------------|-------------------------|
--------------------------|-------------------------|
--------------------------|-------------------------|
--------4--5--5--4-----0--|--------5--7--4-------0--|
-----0--------------0--0--|-----0-------------0--0--|


                    PM        PM    PM PM                 
---------------------------|--------------------------|
---------------------------|--------------------------|
---------------------------|--------------------------|
---------------------------|-----7--------------------|
-----------7--8--7-----10--|--------------7--8--7--8--|
-----7--8-----------0------|--0-----0--0-----------8--|


     PM             PM          PM            PM     
--------------------------|-------------------------|
--------------------------|-------------------------|
--------------------------|-------------------------|
--------------------------|-------------------------|
--------4--5--5--4-----8--|--------5--7--4-------8--|
-----8--------------8--8--|-----8-------------8--8--|




                                                      Bridge:

                    PM        PM    PM PM                                 
---------------------------|-------------------------|-------------------|
---------------------------|-------------------------|-------------------|
---------------------------|-------------------------|-------------------|
---------------------------|-----7--------8--5-------|-------------------|
-----------7--8--7-----10--|-------------------------|--0----------------|
-----7--8-----------8------|--8-----8--8-------------|--0----------------|


-------------------|-------------------|-------------------|-------------------|
-------------------|-------------------|-------------------|-------------------|
-------------------|-------------------|-------------------|-------------------|
-------------------|-------------------|-------------------|-------------------|
-------------------|-------------------|-------------------|--0----------------|
-------------------|-------------------|-------------------|--0----------------|


-------------------|-------------------|--------------------|
-------------------|-------------------|--------------------|
-------------------|-------------------|--------------------|
-------------------|-------------------|--------------------|
-------------------|-------------------|--------------------|
-------------------|-------------------|--------------------|




Breakdown:

  PM PM PM PM   PM PM   PM   PM PM PM PM   PM  
----------------------------------------------|
----------------------------------------------|
----------------------------------------------|
----------------------------------------------|
--0--0--0--0----0--0----0----0--0--0--0----0--|
--0--0--0--0----0--0----0----0--0--0--0----0--|


    PM PM   PM   PM PM PM PM           
--------------------------------------|
--------------------------------------|
--------------------------------------|
--------------------------------------|
----0--0----0----0--0--0--0--0--------|
----0--0----0----0--0--0--0--0--------|


  PM PM PM PM   PM PM   PM   PM PM PM PM   PM  
----------------------------------------------|
----------------------------------------------|
----------------------------------------------|
----------------------------------------------|
--0--0--0--0----0--0----0----0--0--0--0----0--|
--0--0--0--0----0--0----0----0--0--0--0----0--|


  PM PM PM   PM PM PM                                              
---------------------------------|-----------|
---------------------------------|-----------|
---------------------------------|-----------|
---------------------------------|-----------|
--1--1--1----1--1--1-------------|-----------|
--0--0--0----0--0--0-------------|-----------|


  PM PM PM PM   PM PM   PM   PM PM PM PM   PM  
----------------------------------------------|
----------------------------------------------|
----------------------------------------------|
----------------------------------------------|
--0--0--0--0----0--0----0---0--0--0--0----0--|
--0--0--0--0----0--0----0----0--0--0--0----0--|


    PM PM   PM   PM PM PM PM           
--------------------------------------|
--------------------------------------|
--------------------------------------|
--------------------------------------|
----0--0----0----0--0--0--0--0--------|
----0--0----0----0--0--0--0--0--------|


  PM PM PM PM   PM PM   PM   PM PM PM PM   PM  
----------------------------------------------|
----------------------------------------------|
----------------------------------------------|
----------------------------------------------|
--0--0--0--0----0--0---0----0--0--0--0----0--|
--0--0--0--0----0--0----0----0--0--0--0----0--|


  PM PM PM   PM PM PM   PM PM PM   PM PM PM      PM                
----------------------------------------------|-------------------|
----------------------------------------------|-------------------|
----------------------------------------------|-------------------|
----------------------------------------------|-------------------|
--1--1--1----1--1--1----1--1--1----1--1--1----|--1----------------|
--0--0--0----0--0--0----0--0--0----0--0--0----|--0----------------|





GUITAR 2




Intro/Breakdown:

      PM PM PM PM PM   PM PM PM PM    PM   PM PM     
C#||---------------------------------------------|
G#||---------------------------------------------|
E ||---------------------------------------------|
B ||---------------------------------------------|
F#||--0--0--0--0--0----0--0--0--0-----0----0--0--|
B ||--0--0--0--0--0----0--0--0--0-----0----0--0--|


  PM PM      PM PM   PM PM   PM PM          PM PM PM PM               
--------------------------------------|------------------------------|
--------------------------------------|------------------------------|
--------------------------------------|------------------------------|
--------------------------------------|------------------------------|
--0--0-------0--0----0--0----0--0-----|-----0--0--0--0---------------|
--0--0-------0--0----0--0----0--0-----|-----0--0--0--0-------0-------|


     PM PM PM        PM PM PM   PM         
-------------------------------------|----|
-------------------------------------|----|
-------------------------------------|----|
-------------------------------------|----|
-----0--0--0---------0--0--0----0----|----|
-----0--0--0---------0--0--0----0----|----|


  PM PM PM PM PM   PM PM PM PM    PM   PM PM  
---------------------------------------------|
---------------------------------------------|
---------------------------------------------|
---------------------------------------------|
--0--0--0--0--0----0--0--0--0-----0----0--0--|
--0--0--0--0--0----0--0--0--0-----0----0--0--|


  PM PM      PM PM   PM PM   PM PM          PM PM PM PM                
--------------------------------------|-------------------------------|
--------------------------------------|-------------------------------|
--------------------------------------|-------------------------------|
--------------------------------------|-------------------------------|
--0--0-------0--0----0--0----0--0-----|-----0--0--0--0----------------|
--0--0-------0--0----0--0----0--0-----|-----0--0--0--0-------0-----0--|


     PM PM PM        PM PM PM      
----------------------------------|
----------------------------------|
----------------------------------|
----------------------------------|
-----0--0--0---------0--0--0------|
-----0--0--0---------0--0--0------|


  PM PM PM PM PM   PM PM PM PM    PM   PM PM  
---------------------------------------------|
---------------------------------------------|
---------------------------------------------|
---------------------------------------------|
--0--0--0--0--0----0--0--0--0-----0----0--0--|
--0--0--0--0--0----0--0--0--0-----0----0--0--|


  PM PM      PM PM   PM PM   PM PM          PM PM PM PM      PM    PM  
--------------------------------------|-------------------------------|
--------------------------------------|-------------------------------|
--------------------------------------|-------------------------------|
--------------------------------------|-------------------------------|
--0--0-------0--0----0--0----0--0-----|-----0--0--0--0-------0-----0--|
--0--0-------0--0----0--0----0--0-----|-----0--0--0--0-------0-----0--|


     PM PM PM        PM PM PM        PM PM PM PM PM        PM PM PM PM PM PM  
----------------------------------|------------------------------------------|
----------------------------------|------------------------------------------|
----------------------------------|------------------------------------------|
----------------------------------|------------------------------------------|
-----0--0--0---------0--0--0------|--0--0--0--0--0---------0--0--0--0--0--0--|
-----0--0--0---------0--0--0------|--0--0--0--0--0---------0--0--0--0--0--0--|




                              Chorus:

  PM PM PM PM PM PM PM PM          PM             PM     
-----------------------------|--------------------------|
-----------------------------|--------------------------|
-----------------------------|--------------------------|
-----------------------------|--------------------------|
--0--0--0--0--0--0--0--0--0--|--------7--8--8--7-----0--|
--0--0--0--0--0--0--0--0--0--|-----0--------------0--0--|


     PM             PM          PM PM             PM     
--------------------------|-----------------------------|
--------------------------|-----------------------------|
--------------------------|-----------------------------|
--------------------------|--------------------------8--|
--------8--10--7-------0--|-----------10--12--10--------|
-----0--------------0--0--|-----7--8--------------0-----|


  PM     PM PM                      PM             PM        
------------------------------|--------------------------|
------------------------------|--------------------------|
------------------------------|--------------------------|
-----10-----------------------|--------------------------|
---------------10--12--10--8--|--------7--8--8--7-----8--|
--0------0--0--------------8--|-----8--------------8--8--|


     PM             PM          PM PM             PM        
--------------------------|-----------------------------|
--------------------------|-----------------------------|
--------------------------|-----------------------------|
--------------------------|--------------------------8--|
--------8--10--7-------8--|-----------10--12--10--------|
-----8--------------8--8--|-----7--8--------------0-----|


  PM     PM PM                      PM             PM     
------------------------------|--------------------------|
------------------------------|--------------------------|
------------------------------|--------------------------|
-----10-----------------------|--------------------------|
---------------10--12--10--0--|--------7--8--8--7-----0--|
--0------0--0--------------0--|-----0--------------0--0--|


     PM             PM          PM PM             PM     
--------------------------|-----------------------------|
--------------------------|-----------------------------|
--------------------------|-----------------------------|
--------------------------|--------------------------8--|
--------8--10--7-------0--|-----------10--12--10--------|
-----0--------------0--0--|-----7--8--------------0-----|


  PM     PM PM                      PM             PM     
------------------------------|--------------------------|
------------------------------|--------------------------|
------------------------------|--------------------------|
-----10-----------------------|--------------------------|
---------------10--12--10--8--|--------7--8--8--7-----8--|
--0------0--0--------------8--|-----8--------------8--8--|


     PM             PM          PM PM             PM     
--------------------------|-----------------------------|
--------------------------|-----------------------------|
--------------------------|-----------------------------|
--------------------------|--------------------------8--|
--------8--10--7-------8--|-----------10--12--10--------|
-----8--------------8--8--|-----7--8--------------8-----|




                                           Verse:

  PM     PM PM                                  PM PM    PM              
---------------------------|--------------|--------------------------|
---------------------------|--------------|--------------------------|
---------------5--2-----3--|--------------|--------------------------|
-----10--------------3-----|--5--3--------|--------------------7--8--|
---------------------------|--------0--3--|--0--------5-----8--------|
--8------8--8--------------|--------------|--0--0--0-----0-----------|


                                   PM PM    PM           
--10-------------------------|--------------------------|
------11--10--8--------------|--------------------------|
-----------------8--7--------|--------------------------|
-----------------------8--5--|-----------8-----7--5--0--|
-----------------------------|--5-----------------------|
-----------------------------|-----0--0-----0-----------|


                                        PM PM    PM           
----------------------------------|--------------------------|
----------------------------------|--------------------------|
----------------------------------|--------------------------|
----------------------------------|-----------8-----7--5--0--|
--4-4-4-4-5-5-5-5-7-7-7-7-8-8-8-8-|--5-----------------------|
----------------------------------|-----0--0-----0-----------|

   
--------------------------|-------------------------------|
--------------------------|-------------------------------|
--------------------------|------------------------7h--9--|
--------------------------|-----------------7h--8---------|
--5--7--5--0--4--7--4--0--|--5h--8--7h--10----------------|
--------------------------|-------------------------------|


                                     PM    PM    PM    PM  
-------------------------------|--------------------------|
-------------------------------|--------------------------|
--10p--9--7--------------------|--------------------------|
-------------8p--7-------------|--------------------------|
--------------------10p--8--7--|--5-----7-----8-----5-----|
-------------------------------|-----0-----0-----0-----0--|


     PM    PM    PM    PM       PM    PM    PM    PM  
--------------------------|--------------------------|
--------------------------|--------------------------|
--------------------------|--------------------------|
--------5-----------------|--------------------------|
--7-----------8-----7-----|--4-----5-----7-----4-----|
-----0-----0-----0-----0--|-----0-----0-----0-----0--|


     PM    PM    PM    PM    PM                  
--------------------------|---------------------|
--------------------------|---------------------|
--------------------------|---------------------|
--------7-----------------|---------------------|
--5-----------8-----7-----|--0------------------|
-----0-----0-----0-----0--|--0------------------|


  PM PM PM PM PM PM PM PM PM PM PM PM PM PM PM PM    PM                  
--------------------------------------------------|---------------------|
--------------------------------------------------|---------------------|
--------------------------------------------------|---------------------|
--------------------------------------------------|---------------------|
--0--0--0--0--0--0--0--0--0--0--0--0--0--0--0--0--|--0------------------|
--0--0--0--0--0--0--0--0--0--0--0--0--0--0--0--0--|--0------------------|


  PM PM PM PM PM PM PM PM    PM                  
--------------------------|---------------------|
--------------------------|---------------------|
--------------------------|---------------------|
--------------------------|---------------------|
--0--0--0--0--0--0--0--0--|--0------------------|
--0--0--0--0--0--0--0--0--|--0------------------|


  PM PM PM PM PM PM PM PM PM PM PM PM PM PM PM PM    PM                                 
--------------------------------------------------|---------------------|-----|
--------------------------------------------------|---------------------|-----|
--------------------------------------------------|---------------------|-----|
--------------------------------------------------|---------------------|-----|
--0--0--0--0--0--0--0--0--0--0--0--0--0--0--0--0--|--0------------------|-----|
--0--0--0--0--0--0--0--0--0--0--0--0--0--0--0--0--|--0------------------|-----|


                 PM             PM                        
--------------------------|------------------------|
--------------------------|------------------------|
--------------------------|------------------------|
--7--8--7-----------------|------------------------|
-----------7--8--0--7--8--|--7--0--5--7--4---------|
--------------------------|------------------------|




Breakdown:


  PM PM PM PM PM PM    PM PM    PM PM PM  
-----------------------------------------|
-----------------------------------------|
-----------------------------------------|
-----------------------------------------|
--0--0--0--0--0--0-----0--0-----0--0--0--|
--0--0--0--0--0--0-----0--0-----0--0--0--|


  PM PM   PM   PM PM   PM PM    PM PM PM  
-----------------------------------------|
-----------------------------------------|
-----------------------------------------|
-----------------------------------------|
--0--0----0----0--0----0--0-----0--0--0--|
--0--0----0----0--0----0--0-----0--0--0--|


  PM PM PM PM PM PM    PM PM PM PM PM PM PM PM  
-----------------------------------------------|
-----------------------------------------------|
-----------------------------------------------|
-----------------------------------------------|
--0--0--0--0--0--0-----0--0--0--0--0--0--0--0--|
--0--0--0--0--0--0-----0--0--0--0--0--0--0--0--|


  PM PM   PM   PM PM   PM PM    PM PM     
-----------------------------------------|
-----------------------------------------|
-----------------------------------------|
-----------------------------------------|
--0--0----0----0--0----0--0-----0--0-----|
--0--0----0----0--0----0--0-----0--0-----|


  PM PM PM PM PM PM    PM PM    PM PM PM  
-----------------------------------------|
-----------------------------------------|
-----------------------------------------|
-----------------------------------------|
--0--0--0--0--0--0-----0--0-----0--0--0--|
--0--0--0--0--0--0-----0--0-----0--0--0--|


  PM PM   PM   PM PM   PM PM    PM     
--------------------------------------|
--------------------------------------|
--------------------------------------|
--------------------------------------|
--0--0----0----0--0----0--0-----0-----|
--0--0----0----0--0----0--0-----0-----|


  PM PM PM PM PM PM    PM PM PM PM PM PM PM PM  
-----------------------------------------------|
-----------------------------------------------|
-----------------------------------------------|
-----------------------------------------------|
--0--0--0--0--0--0-----0--0--0--0--0--0--0--0--|
--0--0--0--0--0--0-----0--0--0--0--0--0--0--0--|


  PM PM   PM   PM PM   PM PM                   
----------------------------------------|
----------------------------------------|
----------------------------------------|
----------------------------------------|
--0--0----0----0--0----0--0-------------|
--0--0----0----0--0----0--0-----PH3~----|


  PM PM PM PM PM PM    PM PM    PM PM PM    PM PM        PM PM    PM PM     
-----------------------------------------|---------------------------------|
-----------------------------------------|---------------------------------|
-----------------------------------------|---------------------------------|
-----------------------------------------|---------------------------------|
--0--0--0--0--0--0-----0--0-----0--0--0--|--0--0---------0--0-----0--0-----|
--0--0--0--0--0--0-----0--0-----0--0--0--|--0--0---------0--0-----0--0-----|


     PM PM PM   PM PM PM PM   PM   PM PM      PM PM PM PM    PM PM PM PM        
-------------------------------------------|--------------------------------|
-------------------------------------------|--------------------------------|
-------------------------------------------|--------------------------------|
-------------------------------------------|--------------------------------|
-----0--0--0----0--0--0--0----0----0--0----|--0--0--0--0--0--0--0--0--0--0--|
-----0--0--0----0--0--0--0----0----0--0----|--1--1--1--1--1--1--1--1--1--1--|


  PM PM PM PM PM PM    PM PM    PM PM PM    PM PM        PM PM    PM PM        
-----------------------------------------|---------------------------------|
-----------------------------------------|---------------------------------|
-----------------------------------------|---------------------------------|
-----------------------------------------|---------------------------------|
--0--0--0--0--0--0-----0--0-----0--0--0--|--0--0---------0--0-----0--0-----|
--0--0--0--0--0--0-----0--0-----0--0--0--|--0--0---------0--0-----0--0-----|


     PM PM PM   PM PM PM PM   PM   PM PM      PM PM PM PM    PM PM PM PM        
-------------------------------------------|--------------------------------|
-------------------------------------------|--------------------------------|
-------------------------------------------|--------------------------------|
-------------------------------------------|--------------------------------|
-----0--0--0----0--0--0--0----0----0--0----|--0--0--0--0--0--0--0--0--0--0--|
-----0--0--0----0--0--0--0----0----0--0----|--1--1--1--1--1--1--1--1--1--1--|




                            Chorus:
 
                                 PM             PM     
--------------|------------|--------------------------|
--------------|------------|--------------------------|
--------------|------------|--------------------------|
--------------|------------|--------------------------|
-------0-0----|---------0--|--------7--8--8--7-----0--|
-------0-0----|---------0--|-----0--------------0--0--|


     PM             PM          PM PM             PM     
--------------------------|-----------------------------|
--------------------------|-----------------------------|
--------------------------|-----------------------------|
--------------------------|--------------------------8--|
--------8--10--7-------0--|-----------10--12--10--------|
-----0--------------0--0--|-----7--8--------------0-----|


  PM     PM PM                      PM             PM     
------------------------------|--------------------------|
------------------------------|--------------------------|
------------------------------|--------------------------|
-----10-----------------------|--------------------------|
---------------10--12--10--8--|--------7--8--8--7-----8--|
--0------0--0--------------8--|-----8--------------8--8--|


     PM             PM          PM PM             PM     
--------------------------|-----------------------------|
--------------------------|-----------------------------|
--------------------------|-----------------------------|
--------------------------|--------------------------8--|
--------8--10--7-------8--|-----------10--12--10--------|
-----8--------------8--8--|-----7--8--------------0-----|


  PM     PM PM                      PM             PM     
------------------------------|--------------------------|
------------------------------|--------------------------|
------------------------------|--------------------------|
-----10-----------------------|--------------------------|
---------------10--12--10--0--|--------7--8--8--7-----0--|
--0------0--0--------------0--|-----0--------------0--0--|


     PM             PM          PM PM             PM        
--------------------------|-----------------------------|
--------------------------|-----------------------------|
--------------------------|-----------------------------|
--------------------------|--------------------------8--|
--------8--10--7-------0--|-----------10--12--10--------|
-----0--------------0--0--|-----7--8--------------0-----|


  PM     PM PM                      PM             PM     
------------------------------|--------------------------|
------------------------------|--------------------------|
------------------------------|--------------------------|
-----10-----------------------|--------------------------|
---------------10--12--10--8--|--------7--8--8--7-----8--|
--0------0--0--------------8--|-----8--------------8--8--|


     PM             PM          PM PM             PM     
--------------------------|-----------------------------|
--------------------------|-----------------------------|
--------------------------|-----------------------------|
--------------------------|--------------------------8--|
--------8--10--7-------8--|-----------10--12--10--------|
-----8--------------8--8--|-----7--8--------------8-----|




                            Bridge:

  PM     PM PM                                                      
---------------------------|-------------------|-------------------|
---------------------------|-------------------|-------------------|
---------------------------|-------------------|-------------------|
-----10--------12--8-------|-------------------|-------------------|
---------------------------|--0----------------|-------------------|
--8------8--8--------------|--0----------------|-------------------|

                 
-------------------|-------------------|-------------------|-------------------|
-------------------|-------------------|-------------------|-------------------|
-------------------|-------------------|-------------------|-------------------|
-------------------|-------------------|-------------------|-------------------|
-------------------|-------------------|--0----------------|-------------------|
-------------------|-------------------|--0----------------|-------------------|


-------------------|--------------------|
-------------------|--------------------|
-------------------|--------------------|
-------------------|--------------------|
-------------------|--------------------|
-------------------|--------------------|




Breakdown:

  PM PM PM PM   PM PM   PM   PM PM PM PM   PM  
----------------------------------------------|
----------------------------------------------|
----------------------------------------------|
----------------------------------------------|
--0--0--0--0----0--0----0----0--0--0--0----0--|
--0--0--0--0----0--0----0----0--0--0--0----0--|


    PM PM   PM   PM PM PM PM                    
--------------------------------------|
--------------------------------------|
--------------------------------------|
--------------------------------------|
----0--0----0----0--0--0--0--0--------|
----0--0----0----0--0--0--0--0--------|


  PM PM PM PM   PM PM   PM   PM PM PM PM   PM  
----------------------------------------------|
----------------------------------------------|
----------------------------------------------|
----------------------------------------------|
--0--0--0--0----0--0----0----0--0--0--0----0--|
--0--0--0--0----0--0----0----0--0--0--0----0--|


  PM PM PM   PM PM PM                   
---------------------------------|-----|
---------------------------------|-----|
---------------------------------|-----|
---------------------------------|-----|
--1--1--1----1--1--1-------------|-----|
--0--0--0----0--0--0-------------|-----|


  PM PM PM PM   PM PM   PM   PM PM PM PM   PM  
----------------------------------------------|
----------------------------------------------|
----------------------------------------------|
----------------------------------------------|
--0--0--0--0----0--0----0----0--0--0--0----0--|
--0--0--0--0----0--0----0----0--0--0--0----0--|


    PM PM   PM   PM PM PM PM           
--------------------------------------|
--------------------------------------|
--------------------------------------|
--------------------------------------|
----0--0----0----0--0--0--0--0--------|
----0--0----0----0--0--0--0--0--------|


  PM PM PM PM   PM PM   PM   PM PM PM PM   PM     
----------------------------------------------|
----------------------------------------------|
----------------------------------------------|
----------------------------------------------|
--0--0--0--0----0--0----0----0--0--0--0----0--|
--0--0--0--0----0--0----0----0--0--0--0----0--|


  PM PM PM   PM PM PM   PM PM PM   PM PM PM      PM                
----------------------------------------------|-------------------|
----------------------------------------------|-------------------|
----------------------------------------------|-------------------|
----------------------------------------------|-------------------|
--1--1--1----1--1--1----1--1--1----1--1--1----|--1----------------|
--0--0--0----0--0--0----0--0--0----0--0--0----|--0----------------|

                  







Tablature Legend
----------------
L - tied note
x - dead note
g - grace note
(n) - ghost note
> - accentuded note
PH - pitch harmonic
PM - palm mute
h - hammer on
p - pull off
b - bend





Comments


Popular Motionless In White tabs & chords
Black Damask The Fog Bass Tabs
Devils Night 2 Bass Tabs
To Keep From Getting Burned Bass Tabs
Ghost In The Mirror Chords
A-m-e-r-i-c-a Tabs
Apocolips Tabs
Black Tabs
Creatures Tabs
Creatures 1 Tabs
Ghost In The Mirror Ukulele


Song lyrics



↑ Back to top | Tablatures and chords are parodies/interpretations of the original songs. You may use it for private study, scholarship, research or language learning purposes only
© 2014 AZChords.com Contact us | Privacy policy | DMCA | Add/correct tabs | Request tabs | Top 50 tabs