>
 >
To Keep From Getting Burned

To Keep From Getting Burned Guitar Tabs

Motionless In White - To Keep From Getting Burned chords, tabs, tablatures, lyrics

Guitar lessons | Add/correct | Request | Top 50 tabs Artists:  A B C D E F G H I J K L M N O P Q R S T U V W X Y Z 0-9

To Keep From Getting Burned Guitar Tabs – Motionless In White

CD, Sheet music, Poster

Do you like To Keep From Getting Burned? Share with your friends now
Bass TabsTabs
Motionless In White


D|---------------|-----------|--------------------|3X
A|o----6~-6~-6~--|-----------|----6~---6~-6~-6~--o|
F|-----7~-7~-7~--|-----------|----7~---7~-7~-7~---|
C|-----0~-0~-0~--|-----------|----0~---0~-0~-0~---|
G|o--0-----------|--0-0-0-0--|--0----0-----------o|
C|---0-----------|--0-0-0-0--|--0----0------------|

D|--------------|-----------|-----|
A|----6~-6~-6~--|-----------|-----|
F|----7~-7~-7~--|-----------|-----|
C|----0~-0~-0~--|-----------|-----|
G|--0-----------|--0-0-0-0--|--0--|
C|--0-----------|--0-0-0-0--|--0--|

D|-------|-------------|--------|-------------|-------------|---------|
A|o------|-------------|--------|-------------|-------------|---------|
F|-------|-------------|--------|-------------|-------------|---------|
C|-------|----triplet--|--------|----triplet--|--triplet----|--PH-----|
G|o--0~--|--0-(0-0-0)--|--0-0~--|--0-(0-0-0)--|--(0-0-0)-0--|--5b6b5--|
C|---0~--|--0-(0-0-0)--|--0-0~--|--0-(0-0-0)--|--(0-0-0)-0--|---------|

D|-------------|-------|------------|-------------|2X
A|-------------|-------|------------|------------o|
F|-------------|-------|------------|-------------|
C|----triplet--|-------|------------|-------------|
G|--0-(0-0-0)--|--0-0--|--8~-8~-7~--|--5~-7~-3~--o|
C|--0-(0-0-0)--|--0-0--|--8~-8~-7~--|--5~-7~-3~---|

D|--------------|-----------|---------------------|
A|----6~-6~-6~--|-----------|---------------------|
F|----7~-7~-7~--|-----------|----triplet---2------|
C|----0~-0~-0~--|-----------|--2-(2-3-2)-5---3-2--|
G|--0-----------|--0-0-0-0--|---------------------|
C|--0-----------|--0-0-0-0--|---------------------|

D|--------|------|------|-------|2X |------|  |------------|------------|3X
A|o-------|------|------|------o|   |------|  |o-----------|-----------o|
F|---10~--|--3~--|--5~--|--9~---|   |--9~--|  |------------|------------|
C|---x----|--x---|--x---|--x----|   |--x---|  |---7-8-7-0--|--5-7-5-0---|
G|o--8~---|--1~--|--3~--|--7~--o|   |--7~--|  |o-----------|-----------o|
C|--------|------|------|-------|   |------|  |------------|------------|
_________________________________________________________________________________

SYNTH PART DURING BREAKDOWN:
D|---10---8----|--6-8---8--|----6-8----|--------------|4X
A|o------------|-----------|-----------|--8---10-11--o|
F|------7---7--|------7----|--7-----7--|----7---------|
C|-------------|-----------|-----------|--------------|
G|o------------|-----------|-----------|-------------o|
C|-------------|-----------|-----------|--------------|

GUITAR PART DURING BREAKDOWN:
D|---------------|-------------|----------|--------------|------------------|2X
A|o--------------|-------------|----------|--------------|---triplet-------o|
F|---------------|-------------|----------|--------------|--(9-12-9)--------|
C|---------------|-------------|----------|--------------|-----------10-12--|
G|o--0-00-00-00--|--0000-0000--|--0-0-00--|--0-0000-0-0--|-----------------o|
C|---0-00-00-00--|--0000-0000--|--0-0-00--|--0-0000-0-0--|------------------|
_________________________________________________________________________________

D|-----------|-----------|------------|-----------|
A|-----------|-----------|------------|-----------|
F|-----------|-----------|------------|-----------|
C|--7-8-7-0--|--5-7-5-0--|--8-10-8-0--|--7-8-7-0--|
G|-----------|-----------|------------|-----------|
C|-----------|-----------|------------|-----------|

D|----------|--------------|---------------|------------|------------|-------------|2X
A|o---------|--------------|---------------|------------|------------|--5-6-5-----o|
F|----------|--------------|---------------|------------|------------|--------6-7--|
C|----------|--------------|---------------|------------|------------|-------------|
G|o-0-0-00--|--0000-00-00--|--0000-000000--|--0-00-0-0--|--0000-0-0--|------------o|
C|--0-0-00--|--0000-00-00--|--0000-000000--|--0-00-0-0--|--0000-0-0--|-------------|

D|------|------|------|------|  |-------|------|------|-------|2X
A|--6~--|--6~--|--6~--|--5~--|  |o--6~--|--6~--|--6~--|--6~--o|
F|--7~--|--x---|--x---|--x---|  |---x---|--x---|--x---|--x----|
C|------|--3~--|--3~--|--2~--|  |---3~--|--3~--|--3~--|--2~---|
G|------|------|------|------|  |o------|------|------|------o|
C|------|------|------|------|  |-------|------|------|-------|

D|---------------|---------------|---------------|---------------|
A|--10-10-10-10--|--10-10-10-10--|--10-10-10-10--|--10/11-11-11--|
F|--x--x--x--x---|--x--x--x--x---|--x--x--x--x---|--x--x--x--x---|
C|--7--7--7--7---|--7--7--7--7---|--7--7--7--7---|--7//8--8--8---|
G|---------------|---------------|---------------|---------------|
C|---------------|---------------|---------------|---------------|

D|------------|-----------|-----------|--------------|
A|--11\8-8-8--|--8-8-8-8--|--8-8-8-8--|--8/10-10-10--|
F|--x--x-x-x--|--x-x-x-x--|--x-x-x-x--|--x-x--x--x---|
C|--8\\5-5-5--|--5-5-5-5--|--5-5-5-5--|--5/7--7--7---|
G|------------|-----------|-----------|--------------|
C|------------|-----------|-----------|--------------|

D|------------|-----------|-----------|-----------|
A|--10\6-6-6--|--6-6-6-6--|--6-6-6-6--|--6-7-7-7--|
F|--x--x-x-x--|--x-x-x-x--|--x-x-x-x--|--x-x-x-x--|
C|--7\\3-3-3--|--3-3-3-3--|--3-3-3-3--|--3/5-5-5--|
G|------------|-----------|-----------|-----------|
C|------------|-----------|-----------|-----------|

D|-----------|-----------|-----------|-----------|
A|--8\5-5-5--|--5-5-5-5--|--6-6-6-6--|--6\5-5-5--|
F|--x-x-x-x--|--x-x-x-x--|--x-x-x-x--|--x-x-x-x--|
C|--5\2-2-2--|--2-2-2-2--|--3-3-3-3--|--3\2-2-2--|
G|-----------|-----------|-----------|-----------|
C|-----------|-----------|-----------|-----------|

D|------|-----------------|-----------------|-------------|----------------|
A|------|-----------------|-----------------|-------------|----------------|
F|------|-----------------|-----------------|-------------|----------------|
C|------|-----------------|-----------------|-------------|----------------|
G|--0~--|--0-0-0~-0-0-0~--|-----------------|-------------|----------------|
C|--0~--|--1-1-1~-1-1-1~--|--0000-000-0000--|--111~-111~--|--00000-000000--|

D|------------|---------|-----------|--------------|4X
A|o-----------|---------|-----------|-------------o|
F|------------|---------|-----------|--------------|
C|------------|---------|-----------|--------------|
G|o--000000~--|--0000~--|--000000~--|--000~-000~--o|
C|---000000~--|--0000~--|--000000~--|--111~-111~---|

D|------------------|-------------------|----------------|-------------|
A|------------------|-------------------|----------------|----------6--|
F|------------------|-------------------|----------------|-------------|
C|------------------|-------------------|----------------|-------------|
G|--x-7-8-0-10-7-8--|--x-7-8-x-7-8-7-8--|--7-8-0-10-7-8--|--5-7-7-8----|
C|------------------|-------------------|----------------|-------------|

D|--------|------|------|-------|2X
A|o-------|------|------|------o|
F|---10~--|--3~--|--5~--|--9~---|
C|---x----|--x---|--x---|--x----|
G|o--8~---|--1~--|--3~--|--7~--o|
C|--------|------|------|-------|

D|-------|-------|-------|-------|-----------|------|
A|--11~--|--11~--|--11~--|--11~--|-----------|------|
F|--14~--|--14~--|--14~--|--14~--|-----------|------|
C|-------|-------|-------|-------|-----------|------|
G|-------|-------|-------|-------|-----------|--0~--|
C|-------|-------|-------|-------|--0000000--|--0~--|





Comments


Popular Motionless In White tabs & chords
Abigail Bass Tabs
City Lights Bass Tabs
Cobwebs Bass Tabs
Devils Night 2 Bass Tabs
Ghost In The Mirror Chords
Apocolips Tabs
City Lights Tabs
Immaculate Misconception 1 Tabs
Undead Ahead Tabs
Ghost In The Mirror Ukulele


Song lyrics



↑ Back to top | Tablatures and chords are parodies/interpretations of the original songs. You may use it for private study, scholarship, research or language learning purposes only
© 2014 AZChords.com Contact us | Privacy policy | DMCA | Add/correct tabs | Request tabs | Top 50 tabs