>
 >
Abigail

Abigail Bass Tabs

Motionless In White - Abigail chords, tabs, tablatures, lyrics

Guitar lessons | Add/correct | Request | Top 50 tabs Artists:  A B C D E F G H I J K L M N O P Q R S T U V W X Y Z 0-9

Abigail Bass Tabs – Motionless In White

CD, Sheet music, Poster

Do you like Abigail? Share with your friends now
Bass TabsTabsUkulele
Profile: Lolorenz11

Motionless In White
Creatures

This tab took forever and believe it or not, the opens were really hard to figure out
but I put the time and effort anyway to figure out the pattern.

Sidenote: In the second verse, thereís a lot of guitar riffs that play where the bass
just plays the rhythm in the background and thereís some parts where the guitars are
playing and the bass is doing a lot more. Iíll point them out. Work with meh. Any 

Legend:
~ - Vibrato Ö just let that shit ring
^ - I didnít know what this symbol means in standard tabbing, I mean punch it.

Intro (0:00-0:06)
F|---------------------------------------------------------------|
C|---------------(Palm mute all)---------------------------------|
G|--------------------------------(Guitar-Fill-in)---------------|
C|-00000-0000-0-0000-00-00-00-0000----------------0000--00-0-0---|

Verse (0:07-0:20)
F|------------------------------------------------------------|----------|
C|---------------(Palm mute all)------------------------------|--Repeat--|
G|------------------------------------------------------------|-Un-muted-|
C|-00000-0000-0-0000-00-00-00-0000----0----0----0000--0000----|----------|

Pre-Chorus (0:21-0:23)
F|--------------------------|
C|--------------------------|
G|--------------------------|
C|-00000-000000-0-0-0-0-0-0-|

Chorus (0:24-0:44)
F|----------------------------------------------------------|
C|----------------------------------------------------------|
G|-^---------------^-----------------^----------------------|
C|-0--0-0-0-0-0-0--0--0-0-0-0-0-0-0--0--0-0-0-0-0-0-0-0-0-0-|

F|---------------------------------------------------------|1st-time|
C|---------------------------------------------------------|--------|
G|-^---------------^-----------------^---------------------|--10ís--|
C|-8--8-8-8-8-8-8--8--8-8-8-8-8-8-8--8--8-8-8-8-8-8-8-8-8-8|-101010-|X2

Verse (0:45-0:50)
F|----------------|Guitar-fill-in-|-------------|---------------------|
C|-----------7-8--|---------------|-------------|---------------------|
G|------5---8-----|---------------|-5---8-7-5-0-|-4444-5555-7777-8888-|
C|-8-8-8--8-------|8-8-8-8-8-8-8-8|--0-0-0------|---------------------|

(0:50-0:55)
F|--------------|-----------------|------------7-9-10-9-7------------|
C|--------------|-----------------|---------7-8----------8-7---------|
G|-5---8--7-5-0-|-5-7-5-0-4-7-4-0-|-5-7-8-10----------------10-8-7---|
C|--0-0-0-------|-----------------|----------------------------------|

(0:56-1:00)
F|-----------------|-----------------|-----------------|-------------------|
C|-----------------|-----------------|-----------------|-------------------|
G|-----------------|-----------------|-----------------|-------------------|
C|-0-0-0-0-0-0-0-0-|-0-0-0-0-0-0-0-0-|-7-7-7-7-7-7-7-7-|-7-7-7-7-7-7-7-7ó7-|

Pre-Breakdown? Lol (1:01-1:07)
F|-------------------------------------------------------|
C|-------------------------------------------------------|
G|-------------------------------------------------------|
C|-0---0000000000--0---0-0-0-0-0-0-0--0---0000000000-----|

(1:08-1:13)
F|-------------------------|---------------------------------|
C|-------------------------|-8-7-6-5-------------------------|
G|-44-55-77-88-55-77-88-77-|---------8-7-6-5-----------------|
C|-------------------------|-----------------8-7-6-5-4-3-2-1-|

Breakdown (1:14-1:39)
F|---------------------------------------------------------|
C|---------------(Palm mute all)---------------------------|
G|---------------------------------------------------------|
C|-000000-0-0000-0-0000-0-0000-000000-000000-0-00-00--0--0-|X2

F|----------------------------------------------------|
C|----------------------------------------------------|
G|----------------------------------------------------|
C|-000000-0-00000---0-0-0000-00-00-00-1-11-11-1-11-11-|X2

Chorus (1:40-2:03)
F|----------------------------------------------------------|
C|----------------------------------------------------------|
G|-^---------------^-----------------^----------------------|
C|-0--0-0-0-0-0-0--0--0-0-0-0-0-0-0--0--0-0-0-0-0-0-0-0-0-0-|

F|-----------------------------------------------------------------|
C|-----------------------------------------------------------------|
G|-^---------------^-----------------^-----------------------10ís--|
C|-8--8-8-8-8-8-8--8--8-8-8-8-8-8-8--8--8-8-8-8-8-8-8-8-8-8-101010-|
^ End with 0.
(2:04-2:19)
Just let it ring from the chorus to the breakdown but thereís one open halfway through
so yeah didnít feel necessary to tab it.

Outro/Breakdown (2:20-2:51)
F|---------------------------------| First time let it ring.
C|---------------------------------| Second time mute.
G|---------------------------------|
C|-0000-00-0-0000-0-00-0-00-0------|X2

F|--------Play-Slower----------|-2nd--time-|
C|-----------------------------|-End--With-|
G|-----------------------------|-----------|
C|-0000-00-0-0000-0-00-0-00-0~-|-000-000-0~|X2





Comments


Popular Motionless In White tabs & chords
Devils Night Bass Tabs
Devils Night 2 Bass Tabs
Abigail Tabs
Apocolips Tabs
City Lights Tabs
Creatures Tabs
Creatures 1 Tabs
Immaculate Misconception 1 Tabs
The Divine Infection Tabs
We Only Come Out At Night Tabs


Song lyrics



↑ Back to top | Tablatures and chords are parodies/interpretations of the original songs. You may use it for private study, scholarship, research or language learning purposes only
© 2014 AZChords.com Contact us | Privacy policy | DMCA | Add/correct tabs | Request tabs | Top 50 tabs