» » »

Creatures Tabs (ver.1)

Artists:  A B C D E F G H I J K L M N O P Q R S T U V W X Y Z # 

Creatures Tabs (ver.1)

Motionless In White
Rating:
5/5 (2 votes)

Hard to play? Try these video lessons and learn fast.
                -----------------------------------------------------------------------------
-----------------------------------------------------------------------------

Tuning:Drop C

Decided to put up a tab since no one else has. I tabbed it by ear and watching
it will help a lot.

0:00 - 0:12
D|---------------------------------------------------------------------------|
A|---------------------------------------------------------------------------|
F|---------------------------------------------------------------------------|
C|0-----------000000-000000-0000-0000-000000-000000--------------------------|
G|0-----------000000-000000-0000-0000-000000-000000--------------------------|
C|0-----------000000-000000-0000-0000-000000-000000--------------------------|
              xxxxxx xxxxxx xxxx xxxx xxxxxx xxxxxx

0:13 - 0:21 (this is slower than the first set of chugging)
D|---------------------------------------------------------------------------|
A|---------------------------------------------------------------------------|
F|---------------------------------------------------------------------------|
C|000000-000000-0000-0000-000000-000000-0000-0000----------------------------|
G|000000-000000-0000-0000-000000-000000-0000-0000-12*------------------------|
C|000000-000000-0000-0000-000000-000000-0000-0000----------------------------|

0:22 - 0:40
D|---------------------------------------------------------------------------|
A|---------------------------------------------------------------------------|
F|---------------------------------------------------------------------------|
C|000000-000000-0000-0000-000000-000000-00000000---0---0---0---0-------------|
G|000000-000000-0000-0000-000000-000000-00000000---0---0---0---0-------------|
C|000000-000000-0000-0000-000000-000000-00000000---0---0---0---0-------------|

0:41 - 0:51
D|---------------------------------------------------------------------------|
A|---------------------------------------------------------------------------|
F|---------------------------------------------------------------------------|
C|----------5--2-3--------2--2--2h3p2p0-----------5--2-3--7--7--7--7--5-5----|
G|-5--5--5----------3--3-----------------5--5--5-----------------------------|
C|--00-00-00-00-0----00-00-00-00----------00-00-00-00-0----00-00-00-00-0-----|

0:52 - 1:02
D|---------------------------------------------------------------------------|
A|---------------------------------------------------------------------------|
F|---------------------------------------------------------------------------|
C|----------5--2-3--------2--2--2h3p2p0-----------5--2-3--7--7--7--10--7-10--|
G|-5--5--5----------3--3-----------------5--5--5-----------------------------|
C|--00-00-00-00-0----00-00-00-00----------00-00-00-00-0----00-00-00-00-0-----|

1:03 - 1:20
D|---------------------------------------------------------------------------|
A|---------------------------------------------------------------------------|
F|---------------------------------------------------------------------------|
C|0---0---8-888-8---10-101010-10---0-000-0---0-000-0-------------------------|
G|0---0---8-888-8---10-101010-10---0-000-0---0-000-0-------------------------|
C|0---0---8-888-8---10-101010-10---0-000-0---0-000-0-------------------------|

1:21 - 1:32
D|---------------------------------------------------------------------------|
A|---------------------------------------------------------------------------|
F|---------------------------------------------------------------------------|
C|8-888-8---5-555-5---0-000-0---0-000-0--------------------------------------|
G|8-888-8---5-555-5---0-000-0---0-000-0--------------------------------------|
C|8-888-8---5-555-5---0-000-0---0-000-0--------------------------------------|

1:33 - 1:44
D|---------------------------------------------------------------------------|
A|---------------------------------------------------------------------------|
F|---------------------------------------------------------------------------|
C|888888888888-101010101010101010101010-000000000000-0-000000000000-0--------|
G|888888888888-101010101010101010101010-000000000000-0-000000000000-0--------|
C|888888888888-101010101010101010101010-000000000000-0-000000000000-0--------|

1:45 - 1:59 (just the opens at the end are played 7 times)
D|---------------------------------------------------------------------------|
A|---------------------------------------------------------------------------|
F|---------------------------------------------------------------------------|
C|888888888888-555555555555-000000-------0-----------------------------------|
G|888888888888-555555555555-000000-(x7)--0-----------------------------------|
C|888888888888-555555555555-000000-------0-----------------------------------|

2:00 - 2:14 (this whole part is played twice)
D|---------------------------------------------------------------------------|
A|---------------------------------------------------------------------------|
F|---------------------------------------------------------------------------|
C|000000-000000-000000-0000000--000------000------777777---------4444--------|
G|000000-000000-000000-0000000--000-10-8-000-10-8-777777-5h8p5h8-4444--(x2)--|
C|000000-000000-000000-0000000--000---0--000---0--777777---------4444--------|

2:15 - 2:20 (Do only the last part 3 times)
D|---------------------------------------------------------------------------|
A|---------------------------------------------------------------------------|
F|---------------------------------------------------------------------------|
C|00000000-3p03p03p03p0-00000000-3\5p05p05p0---------------------------------|
G|00000000--------------00000000--------------(x3)---------------------------|
C|00000000--------------00000000---------------------------------------------|

2:21 - 2:27 (only the last part is played twice)
D|---------------------------------------------------------------------------|
A|---------------------------------------------------------------------------|
F|---------------------------------------------------------------------------|
C|00000000-3p03p03p03p0-00000000-3\5p05p05p0-00000000-10p0---8p07p0----------|
G|00000000--------------00000000-------------00000000-----8p0-------(x2)-----|
C|00000000--------------00000000-------------00000000------------------------|

2:28 - 2:53 (the whole part is played twice)
D|----------------------------------------------------------------------------|
A|----------------------------------------------------------------------------|
F|----------------------------------------------------------------------------|
C|7----------------------10-10-8-8---7----------------------------------------|
G|-878-(Do this 6 times)---8--8-8-8---878-(Do this 4 times now)-5--7--8--10---|
C|----------------------------------------------------------------------------|
2:54 - 3:19 (Whole part played 4 times)
D|---------------------------------------------------------------------------|
A|---------------------------------------------------------------------------|
F|---------------------------------------------------------------------------|
C|0-----0-----00-00000-00-00-------------------------------------------------|
G|0-----0-----00-00000-00-00-(x4)--------------------------------------------|
C|0-----0-----00-00000-00-00-------------------------------------------------|

3:20 - 3:42 (whole part played twice)
D|---------------------------------------------------------------------------|
A|---------------------------------------------------------------------------|
F|---------------------------------------------------------------------------|
C|0-0-0-0-0-0000--0-0-0-0-055553333------0-----------------------------------|
G|0-0-0-0-0-0000--0-0-0-0-0---------(x2)-0-(this is played at the very end)--|
C|0-0-0-0-0-0000--0-0-0-0-0--------------0-----------------------------------|

***************

| /   slide up
| \   slide down
| h   hammer-on
| p   pull-off
| ~   vibrato
| +   harmonic
| x   Mute note
| b   Bend
| pb  Pre-bend
| br  Bend release
| pbr Pre-bend release
| brb Bend release bend

************************************
            
Hard to play? Try these video lessons and learn fast. | Correct




comments powered by Disqus
↑ Back to top | Tablatures and chords are parodies/interpretations of the original songs. You may use it for private study, scholarship, research or language learning purposes only