» » »

Modest Mouse, The Whale Song Tabs (ver.2)

Artists:  A B C D E F G H I J K L M N O P Q R S T U V W X Y Z # 

The Whale Song Tabs (ver.2)

Modest Mouse Tabs
 Rating:
4/5 (4 votes)
The Whale Song lessons Tabs too difficult? Try these video lessons and learn fast
                "(1)
I did not make this, Will from ModMouse did, I take no credit besides fixing
up the look of it to appear correct on here.

e|---8--8--6--6------------------------------------------------------------|
B|-----------------8-9-8-9-8--9-9-9-9-8-9-8--9-9-9-9-8-6-8--------....\4---|
G|-8--8--------------------------------------------------------------------|
D|-------------------------------------------------------------------------|
A|-------------------------------------------------------------------------|
E|-------------------------------------------------------------------------|

Its not a bad idea to slide the 8 to 9s on B, 8/9

e|--8-6-8-6-8-6-6-6-6------------------------|
B|-------------------------9-8-9-8-8-8-9-----|
G|-------------------------------------------|
D|-------------------------------------------|
A|-------------------------------------------|
E|-------------------------------------------|

Then some crazy slidy stuff which is basically starting on each note above and then 
up a bit and back down..... sort of.

e|--15-15-15-15-15-15-15-15-15-13-13-13-13-13-13-13-13-13-11-11-11-|
B|-----------------------------------------------------------------|
G|-----------------------------------------------------------------|
D|-----------------------------------------------------------------|
A|-----------------------------------------------------------------|
E|-----------------------------------------------------------------|

e|--11-11-11-11-11-11-10-10-10-10-10-10-10-10-10-|
B|-----------------------------------------------|
G|-----------------------------------------------|
D|-----------------------------------------------|
A|-----------------------------------------------|
E|-----------------------------------------------|

e|--------------------------------------------------------------------------------------------|
B|-13-13-13-13-13-13-13-13-13-11-11-11-11-11-11-11-11-11-9-9-9-9-9-9-9-9-9-8-8-8-8-8-8-8-8-8--|
G|--------------------------------------------------------------------------------------------|
D|--------------------------------------------------------------------------------------------|
A|--------------------------------------------------------------------------------------------|
E|--------------------------------------------------------------------------------------------|

^^^^With Variations


Then the chords for the verse are

e|----------------|
B|----------------|
G|--5-------8---3-|
D|--5---6---8---3-|
A|--3---6---6---5-|
E|------4---------|


Then repeat the stuff above a bit and mix things up!
"            
Submit corrections

comments powered by Disqus
↑ Back to top | Modest Mouse Tabs for The Whale Song. Lyrics for acoustic guitar and electric guitar. Tablatures and chords are parodies/interpretations of the original songs. You may use it for private study, scholarship, research or language learning purposes only