» » »

Modest Mouse, Styrofoam Boots Tabs (ver.3)

Artists:  A B C D E F G H I J K L M N O P Q R S T U V W X Y Z # 

Styrofoam Boots Tabs (ver.3)

Modest Mouse Tabs
 Rating:
4/5 (4 votes)
Styrofoam Boots lessons Tabs too difficult? Try these video lessons and learn fast
1
                -------------------------------------------------------------------------------------|   
   Styrofoam Boots/ It's All Nice On Ice, Alright - Modest Mouse
-------------------------------------------------------------------------------------|

Tuning:Standard

Main Riff
e|----3-----3---------------------------------------------------------------|
B|----0-----0---------------------------------------------------------------|
G|--------------------------------------------------------------------------|
D|--------------------------------------------------------------------------|
A|--------------------------------------------------------------------------|
E|--3----3-----3------------------------------------------------------------|

Fill #1              Fill #2
e|------------------|-------------------------------------------------------|
B|------------------|--0-------0--------------------------------------------|
G|----------2p0--0--|--2p0--0--0--------------------------------------------|
D|--0--2p0----------|-------2-----------------------------------------------|
A|------------------|-------------------------------------------------------|
E|------------------|-------------------------------------------------------|

Fill #3
e|--------------------------------------------------------------------------|
B|--------------------------------------------------------------------------|
G|-------2p0--0---2p0---------------2-0-------------------------------------|
D|--2p0---------------2p0-2p0-----0-----------------------------------------|
A|----------------------------2p0-------------------------------------------|
E|--------------------------------------------------------------------------|

Chord
e|--3-3-3-3---3-3-3-3-------------------------------------------------------|
B|--3-3-3-3---3-3-3-3-------------------------------------------------------|
G|--4-4-4-4---4-4-4-4-------------------------------------------------------|
D|--5-5-5-5---4-4-4-4-------------------------------------------------------|
A|--5-5-5-5---5-5-5-5-------------------------------------------------------|
E|----------3---------3-----------------------------------------------------|

Riff
e|----3----3----------------------------------------------------------------|
B|----3----3----------------------------------------------------------------|
G|----4----4----------------------------------------------------------------|
D|--------------------------------------------------------------------------|
A|--------------------------------------------------------------------------|
E|--3----3------------------------------------------------------------------|

e|--------------------------------------------------------------------------|
B|--------------------------------------------------------------------------|
G|--------------------------------------------------------------------------|
D|--------------------------------------------------------------------------|
A|--7-7-5-7-7-5-7-----------------------------------------------------------|
E|--------------------------------------------------------------------------|

e|--3-3----3-3--------------------------------------------------------------|
B|--0-0----0-0--------------------------------------------------------------|
G|--0-0----0-0--------------------------------------------------------------|
D|--x-x----x-x--------------------------------------------------------------|
A|--x-x----x-x--------------------------------------------------------------|
E|--3-3----3-3--------------------------------------------------------------|

| /  slide up
| \  slide down
| h  hammer-on
| p  pull-off
| ~  vibrato
| +  harmonic
| x  Mute note
            
Submit corrections

comments powered by Disqus
↑ Back to top | Modest Mouse Tabs for Styrofoam Boots. Lyrics for acoustic guitar and electric guitar. 1 Tablatures and chords are parodies/interpretations of the original songs. You may use it for private study, scholarship, research or language learning purposes only