» » »

Modest Mouse, Ocean Breathes Salty Tabs (ver.2)

Artists:  A B C D E F G H I J K L M N O P Q R S T U V W X Y Z # 

Ocean Breathes Salty Tabs (ver.2)

Modest Mouse Tabs
Rating:
0/5 (0 votes)
Ocean Breathes Salty lessons Tabs too difficult? Try these video lessons and learn fast
                so i decided to do the whole song tab. enjoy! comment and rate please.


Intro part 1
----------------------------------------|-7-7b------------------------------|
----------------------------------1-----|------8b---------------------------|
---0----0---0---0---0-----0---0-----0---|----------------x2-----------------|
-2--2-0-----------2---2-0---------------|-----------------------------------|
----------3---3-------------3---3-------|-----------------------------------|
----------------------------------------|-----------------------------------|

Part 2
-3-3-0-0/3-3-0/3-0-3-3-5-0--------------------------------------------------|
---------------------------1-3-3-3-3-3-3-5-1--------------------------------|

Verse (quiet under drums n vocals)
-3-0-0-0-0---0-0-0-0---------------------7----------------------------------|
-----------3---------------5-5-3-3-1-1-1---8--------------------------------|
-----------------------x2---------------------------------------------------|
   wut i think is the chorus is some odd sound and i dont think its guitar


Post-Chorus
---3-2---5-----------3-2-----3-----3----3-2---5-----------3-2---------------|
-5-----3---3-3-3/5-5-------3-----3---3-5----3---3-3-3/5-5-----3-------------|
-------------------------5-----4----5---------------------------5-----------|

Play this til the end of the song after he sings by himself with some drums in the back.

-9----9---7---7---5---5---7---7---------------------------------------------|
---10--10---9---9---7---7---9---9-------------------------------------------|
            
Submit corrections

comments powered by Disqus
↑ Back to top | Modest Mouse Tabs for Ocean Breathes Salty. Lyrics for acoustic guitar and electric guitar. Tablatures and chords are parodies/interpretations of the original songs. You may use it for private study, scholarship, research or language learning purposes only