» » »

Modest Mouse, I Came As A Rat Tabs (ver.3)

Artists:  A B C D E F G H I J K L M N O P Q R S T U V W X Y Z # 

I Came As A Rat Tabs (ver.3)

Modest Mouse Tabs
 Rating:
4/5 (4 votes)
I Came As A Rat lessons Tabs too difficult? Try these video lessons and learn fast
1
                This is one of my favortie Modest Mouse songs, so I thought i'd tab the whole thing out for everyone. 
Hope it's not to bad.

/ = slide note
~ = slightly hold the note
h = hammer on


Standard tuning 

Intro (Clean) 8x
e--------------------------------------|--------|
b--------------------------------------|--------|
g--------------------------------------|--------|
d------7--------10-------5--------3----|--3-3---|
a----7-------10--------5--------3------|--3-3---|
E--5----5--8------8--3-----3--1-----1--|--1-1---|

Verse
Tempo Changes
Acoustic
e---------------------------|
b---------------------------|
g---------------------------|
d---7-7--10-10--5-5--3-3----|
a---7-7--10-10--5-5--3-3----|
E---5-5--8--8---3-3--1-1----|
    A5   C5     G5   F5

Solo
e-------------------------------------------------------------|
b-------------------------------------------------------------|
g---9h10-9h10--7--5/4-4h5-4h5---------------------------------|
d-----------------------------7--5/2--2~--5~-2-2-5-2-5-2-0-2--|
a-------------------------------------------------------------|
E-------------------------------------------------------------|

Solo2
e--------------------------------|
b--------------------------8-----|
g---9h10-9h10--7--5/4--4-5-------|
d--------------------------------|
a--------------------------------|
E--------------------------------|

Repeat Verse
Drums and percussion part
Just keep playing this over and over
e-----------------------------------|------------------------------------|
b-----------------------------------|------------------------------------|
g-----------------------------------|------------------------------------|
d-----------------------------------|------------------------------------|
a-------------------------7--7-10-7-|-------------------------7--7---7---|
E--7-7-7--7-7-7--10-10-10-----------|--7-7-7--7-7-7--10-10-10------10----|

Solo
e-----------------------------|
b-----------------------------|
g--4-6-7----------------------|
d--------7--4--0-2--4-5h2-----|
a-------------------------2~--|
E-----------------------------|
            
Submit corrections

comments powered by Disqus
↑ Back to top | Modest Mouse Tabs for I Came As A Rat. Lyrics for acoustic guitar and electric guitar. 1 Tablatures and chords are parodies/interpretations of the original songs. You may use it for private study, scholarship, research or language learning purposes only