» » »

Modest Mouse, Edit The Sad Parts Bass tabs (ver.1)

Artists:  A B C D E F G H I J K L M N O P Q R S T U V W X Y Z # 

Edit The Sad Parts Bass tabs (ver.1)

Modest Mouse Tabs
 Rating:
4/5 (4 votes)
Edit The Sad Parts lessons Tabs too difficult? Try these video lessons and learn fast
1
                Edit the Sad Parts
Music by Modest Mouse/Isaac Brock
Standard Tuning (E, A, D, G)

Legend- lr=let ring

quiet on intro then
G|-7---7-9-7-----------7-9-11-9-7---|
D|---7-------7-4-7-0-7--------------|
A|----------------------------------|
E|----------------------------------|
(verse)

I'm not sure about the chorus, but
G|--------------------------------|
D|--------------------------------|
A|-5------------5-----------------|
E|-------4--------------0---------|
just play these until the note changes

bridge
G|-------------11-------------11-|
D|-12-12-12-12----12-12-12-12----|
A|-------------------------------|
E|-------------------------------|

G|-------12-11-------------12-11-|
D|-12-12-------12-12-12-12-------|
A|-------------------------------|
E|-------------------------------|
            
Submit corrections

comments powered by Disqus
↑ Back to top | Modest Mouse Bass for Edit The Sad Parts. Lyrics for acoustic guitar and electric guitar. 1 Tablatures and chords are parodies/interpretations of the original songs. You may use it for private study, scholarship, research or language learning purposes only