» » »

Modest Mouse, Dark Center Of The Universe Tabs (ver.1)

Artists:  A B C D E F G H I J K L M N O P Q R S T U V W X Y Z # 

Dark Center Of The Universe Tabs (ver.1)

Modest Mouse Tabs
Rating:
0/5 (0 votes)
Dark Center Of The Universe lessons Tabs too difficult? Try these video lessons and learn fast
                "Dark Center of the Universe" by Modest Mouse

Intro:
(h=hammer on or off)
E--0-0-0-0-0-0-0-0-0-0-0-0-0-2h0-2h0-2h0---
B-5-5-5-5-3-3-3-3-2-2-2-2-0-----0---0---0-- x2

Well I might disintregate into the thin air...
E-0-7-0-7-0-5-0-5-0-4-0-4-0-2h0-2h0-2h0---
B--5-5-5-5-3-3-3-3-2-2-2-2-0---0---0---0-- x4


Chorus: with distortion
E---0h7h0----0h70----0h5h0---0h5h0--
B-55-----5-55----5-33-----3-3-------

E---0h40----0h40----------
B-22----2-22----2-0-------

Well it took a lot of work...

Enjoy
            
Submit corrections

comments powered by Disqus
↑ Back to top | Modest Mouse Tabs for Dark Center Of The Universe. Lyrics for acoustic guitar and electric guitar. Tablatures and chords are parodies/interpretations of the original songs. You may use it for private study, scholarship, research or language learning purposes only