>
 >
Calculus Man

Calculus Man Guitar Tabs

Modest Mouse - Calculus Man chords, tabs, tablatures, lyrics

Guitar lessons | Add/correct | Request | Top 50 tabs Artists:  A B C D E F G H I J K L M N O P Q R S T U V W X Y Z 0-9

Calculus Man Guitar Tabs – Modest Mouse

CD, Sheet music, Poster

Do you like Calculus Man? Share with your friends now
Tabs


Tuning: EADgbe


| /  slide up
| \  slide down
| h  hammer-on
| p  pull-off
| ~  vibrato
| +  harmonic
| x  Mute note

First guitar (without distortion)


e|----------------------|
B|----------------------|
G|----------------------|
D|----------------------|
A|--0--10--12--0--12----|
E|----------------------|


e|------------------------------------------------------------------|
B|------------------------------------------------------------------|
G|------------------------------------------------------------------|
D|------------------------------------------------------------------|
A|--0-10-12-0-12-14-0-10-12-0-12-14-0-10-10-10-10-10-0-0-2-2-0-2----|
E|------------------------------------------------------------------|


and somtimes this varation, dont remember when

e|------------------------------------------------------------------|
B|------------------------------------------------------------------|
G|------------------------------------------------------------------|
D|------------------------------------------------------------------|
A|--0-10-12-0-12-14-0-10-12-0-12-14-0-10-10-10-10-12-0-0-2-2-0-2----|
E|------------------------------------------------------------------|


e|--------------------------------|
B|--------------------------------|
G|--------------------------------|
D|--0-2-5-0-2-5-0-2-5-5-5-5-2-----|
A|--------------------------------|
E|--------------------------------|


e|-------------------------------------------------------|
B|-------------------------------------------------------|
G|--------------2----------------2-------------2---------|
D|--0-2-5-0-2-5---5-2-1----0-2-5---5-2-1-0-2-5---5-2-1---|
A|----------------------2--------------------------------|
E|-------------------------------------------------------|


e|-------------------------------|
B|-------------------------------|
G|-------------------------------|
D|-0-2-5-5-5-2-2-2-2-2-2-2-2-----|
A|---------------------------2---|
E|-------------------------------|


e|------------------------------------------|
B|------------------------------------------|
G|------------------------------------------|
D|-----------------------------12b-9-9-9----|
A|--12-10----10-12-10-12-10-----------------|
E|--------12----------------12--------------|


e|--------------------------------------|
B|--------------------------------------|
G|--------------------------------------|
D|----------------12b-------------------|
A|-12-10----10-12-----10-10-10-10-------|
E|-------12-----------------------------|

e|--------------|
B|--------------|
G|--12-12-12b---|
D|--------------|
A|--------------|
E|--------------|


Second Guitar

if you dont have the sound effects these are the note that comprise them. Also almost 
of the second guitar has variation

so you'll have to learn that own your own. For example the first notes of the second 
below are proably longer in the

song than I tabbed it. So when its writen like that get ready to listen. Every other 
is note for note.

e|----------------------------------------------|
B|----------------------------------------------|
G|----------------------------------------------|
D|----------------------------------------------|
A|----------------------------------------------|
E|-1-1-1-1--1-1-1-1--0-0-0-0-0-0-0-0-----0-0----|


e|----------|
B|----------|
G|----------|
D|--14------|
A|----------|
E|----------|

e|--------------------------|2x
B|--------------------------|
G|-------14--14-------------|
D|-----14--14--14-12-13-----|
A|--------------------------|
E|--------------------------|


e|----------------------------------|
B|----------------------------------|
G|----14--14-------14-----14--------|
D|--14--14--14---14-----14--14-12-13|
A|----------------------------------|
E|----------------------------------|


e|-------------------------------------------------------------------|
B|-------------------------------------------------------------------|
G|----14--14--14------14--14------------14--14--14--14--14--14-------|
D|--14--14--14--14--14--14--14-12-13--14--14--14--14--14--14--14-----|
A|-------------------------------------------------------------------|
E|-------------------------------------------------------------------|


e|--------------------------------------|
B|--------------------------------------|
G|---14------14------14--14-------------|
D|-14--14--14--14--14--14--14-12-13-----|
A|--------------------------------------|
E|--------------------------------------|


e|--------------------------------------|
B|--------------------------------------|
G|----14----14------14--14--------------|
D|-14-----14--14--14--14--14-12-13------|
A|--------------------------------------|
E|--------------------------------------|

e|-----------------------------------------|
B|-----------------------------------------|
G|----14--14--------------16--16-16--------|
D|--14--14--14-12-13---14-----------14-----|
A|-----------------------------------------|
E|-----------------------------------------|


e|----------------------|3x
B|----------------------|
G|----14--14------------|
D|--14--14--14-12-14----|
A|----------------------|
E|----------------------|


e|-----------------------------------------------------------------------------|
B|-----------------------------------------------------------------------------|
G|-----------------------------------------------------------------------------|
D|-----------------------------------------------------------------------------|
A|-----------------------------------------------------------------------------|
E|-7p-7p-7p-7p-7p--0-0-0-0-0--7-7-7-7-7/--0-0-0-0-0-0-0-0-0-0-0-0-0-0-0-0------|


e|-----------------------------------------------------------------------------|
B|-----------------------------------------------------------------------------|
G|-----------------------------------------------------------------------------|
D|---------------2-5-2-5-2------------0-0-0-5-----2-----2-----2-5-2-5-2--2-2---|
A|-----------------------------2----2---------0-0---0-0---0-0------------------|
E|-0-0-000-0-00------------0-0--0-0--------------------------------------------|


e|------------------|
B|------------------|
G|---16-16-16-16----|
D|------------------|
A|------------------|
E|------------------|

e|------------------------------------|
B|------------------------------------|
G|------------------------------------|
D|------------------------------------|
A|------------------------------------|
E|--0-0--0-0-0-0--0-0-0-0--0--0--0-0--|


e|--------------------------------------------------------------------|
B|--------------------------------------------------------------------|
G|--------------------------------------------------------------------|
D|--------------------------------------------------------------------|
A|---------------------------4---------7-7-7--------------------------|
E|--0-0-0-0-0--7-7-7-7-7-7-7---7-7-7-7-------7-7-7-7-7-7-7-7-7--------|


e|---------------------------------|
B|---------------------------------|
G|---------------------------------|
D|---------------------------------|
A|---------------------------------|
E|-7-7-7-7-7-9-7-7-7-7-7-7-7-------|


e|-----------------------------------------|
B|-----------------------------------------|
G|-----------------------------------------|
D|------------------2-2--5-0-2-0-0-5-------|
A|------------4-4-4------------------------|
E|--7-7-7-7-7------------------------------|

e|------------------------------------------------------|
B|------------------------------------------------------|
G|------------------------------------------------------|
D|---2-5---2-5---2-5--5-2-1-5-2-1-5-2-1---2-5-5-5-5-5---|
A|-2-----2-----2------------------------2---------------|
E|------------------------------------------------------|


e|-------------------------|
B|-------------------------|
G|-------------------------|
D|-------------------------|
A|--2-2-2--2-2-2--2-2-2----|
E|-------------------------|

e|-------------------------------------------------------------|
B|-------------------------------------------------------------|
G|-------------------------------------------------------------|
D|---------------------------------------------2b--------------|
A|--2-2-2-2-2-2-2-2-2-2-2-9b-2-2-2-2-2-2-2-2-2----2-2-2-2-2-2--|
E|------------------------9b-----------------------------------|

e|------------------------------------------|
B|------------------------------------------|
G|------------------------------------------|
D|------------------------------------------|
A|-2p-2p-2p-2p-2p-2p-2p-2p-2p-2p-2p-2p------|
E|------------------------------------------|


e|-----------------------------------------------------------------------------|
B|-----------------------------------------------------------------------------|
G|-----------------------------------------------------------------------------|
D|--------------------2~-------5~-2~-0-2-------------2~-5~-5-5-5-5-2~-0-2------|
A|--2-2-2-2-2-2-2--2~------2~------------2~-2-5-2-2~----------------------2----|
E|-----------------------------------------------------------------------------|

e|-------------------------------------------------|
B|-------------------------------------------------|
G|-------------------------------------------------|
D|-------------------------------------------------|
A|-2p-2p-2p-2p-2p-2p-2p-2p-2p-2p-2p-2p-2p-2p-2p----|
E|-------------------------------------------------|


e|----------------------------------------------------|
B|----------------------------------------------------|
G|----------------------------------------2~----------|
D|------------------2~-5~-0-2----------------0-2------|
A|--2-2-2-2-2-2--2~-----------2-2-2-2-2-2--------2----|
E|----------------------------------------------------|


e|-----------------------------------------------------------------|
B|-----------------------------------------------------------------|
G|-----------------------------------------------------------------|
D|------------------------------------2-2-2--2-2-2-----------------|
A|-2-2-2--2-2-2--2-2-2--2-2-2--2-2-2----------------4-4-4--4-4-4---|
E|-----------------------------------------------------------------|


e|---------------------------------------------------|
B|---------------------------------------------------|
G|-----------------9---------------------------------|
D|-------------------2-2---------------5~-0-2--------|
A|--2-2-2-2-2-2--4~------2---4-4-4-4-4--------2------|
E|---------------------------------------------------|

e|-------------------------------------------------------------------------|
B|-------------------------------------------------------------------------|
G|--------------2------------------------2-----------2-----------2---------|
D|----2-5---2-5---5-2-2-2------2-5---2-5---5-2---2-5---5-2---2-5---5-2-----|
A|--2-----2---------------2--2-----2-----------2-----------2-----------2---|
E|-------------------------------------------------------------------------|


e|------------------------------------|
B|------------------------------------|
G|------------------------------------|
D|------------------------------------|
A|------------------------------------|
E|-0-0-0-0-0-0-0-0-0-0-0-0-0-0-0-0----|

e|-----------------------------------------|
B|-----------------------------------------|
G|-----------------------------------------|
D|---2----2----2----2----2-----------2~----|
A|-2--2-2--2-2--2-2--2-2--2-2-----2~-------|
E|-----------------------------5~----------|



e|---------------------------------|
B|---------------------------------|
G|---------------------------------|
D|-----2b---2-5---2-5-2---2--------|
A|-0-2----2-----2-------2----------|
E|---------------------------------|


e|---------------------------------------|
B|---------------------------------------|
G|---------------------------------------|
D|---------------------------------------|
A|--2-2-2--2-2-2--2-2-2--2-2-2--2-2-2----|
E|---------------------------------------|





Comments


Popular Modest Mouse tabs & chords
Dark Center Of The Universe Bass Tabs
Fire It Up Bass Tabs
March Into The Sea Bass Tabs
Blame It On The Tetons 1 Chords
Dashboard Intro Tabs
Float On 8 Tabs
King Rat 1 Tabs
Satin In A Coffin Intro 1 Tabs
Tiny Cities Made Of Ashes 2 Tabs
Waydown Intro Tabs


Song lyrics



↑ Back to top | Tablatures and chords are parodies/interpretations of the original songs. You may use it for private study, scholarship, research or language learning purposes only
© 2014 AZChords.com Contact us | Privacy policy | DMCA | Add/correct tabs | Request tabs | Top 50 tabs