» » »

3rd Planet Bass tabs (ver.2)

Artists:  A B C D E F G H I J K L M N O P Q R S T U V W X Y Z # 

3rd Planet Bass tabs (ver.2)

Modest Mouse
Rating:
0/5 (0 votes)

Hard to play? Try these video lessons and learn fast.
                
                                              3rd Planet

                                                                                   Modest Mouse
Bass



      E   E   E   E   E   E   E   E      E   E   E   E   S   S   S   S   S   S   E   
G||--16------19------16------19------|--16------19------16h-17p-16h-17p-16h-17p-16--|
D||------17------17------17------17--|------17------17------------------------------|
A||----------------------------------|----------------------------------------------|
E||----------------------------------|----------------------------------------------|


                                                                                    NH      
     E   E   S   S  S   S  E   E   S   S  S   S     E   E   S   S  S   S  E   E     Q       
|---16------16h-17-17p-16-16------16h-17-17p-16-|--16------16h-17-17p-16-16------<>12-----||
|*------17--------------------17----------------|------17--------------------17----------*||
|*----------------------------------------------|----------------------------------------*||
|-----------------------------------------------|-----------------------------------------||


    E   E   Q     Q      Q        Q     Q      Q     Q        W                 3x
---16--12--14S----7S----12----|---------------------------|---------------------||
*-----------------------------|--12-----------------------|--------------------*||
*-----------------------------|--------10S----14----12----|--10----------------*||
------------------------------|---------------------------|---------------------||

                         Tempo picks up from 78 to 85 bpm around here

   H         H            Q.      E   H              E    E    E    E   Q     Q     
----------------------|--12--------------------||----------------------------------|
------------12--------|----------12------------||*---------------------12----------|
--10------------------|--------------10--------||*--14S--10S--12S--14--------10----|
----------------------|------------------------||----------------------------------|


   Q.      E   Q     Q         E    E    E    E   Q     Q        E   Q     E   E   E   Q     4x
---------------------------|---------------------------------|-------------------------------||
--10-----------------------|---------------------12----12----|--10--14----12--10------------*||
--------------10S----5S----|--14S--10S--12S--14--------------|--------------------12--14----*||
----------10---------------|---------------------------------|-------------------------------||


   E    E    E    Q.      Q       Q     Q     H              E   E   E   Q.      Q     
-------------------------------|-----------------------||---12--14--12--12------------|
-------------------------12----|--L--------------------||*----------------------12----|
--14S--10S--12S--14------------|-------14----10--------||*----------------------------|
-------------------------------|-----------------------||-----------------------------|


  E   E   Q     H            E   E   E   Q.      Q       E   E   Q      H         3x
-------------------------|--12--14--12--12------------|---------------------------||
--L------12S----5--------|----------------------12----|--L------12S----17--------*||
-----14------------------|----------------------------|-----14-------------------*||
-------------------------|----------------------------|---------------------------||


   E   E   H         E   S  S    Q     Q     Q    Q           Q     Q     Q     Q     
--12--14--12------------------|-------------------------||---------------------------|
--------------------14--12s-9-|--9----------------------||*--------------------------|
------------------------------|-------10S----5----LS----||*--10----10----12----12----|
------------------------------|-------------------------||---------------------------|


   Q      Q     Q    Q           E    E    Q      Q      Q        Q.      E   Q     Q      
----------------------------||--------------------------------|---------------------------|
---------------------------*||--------------------------------|--10-----------------------|
--14S----10S----5----LS----*||--14S--10S--12S----14S----10----|--------------10S----5S----|
----------------------------||--------------------------------|----------10---------------|


     E    E    E    E   Q     Q       Q    E   E   Q     Q         E    E    E    E   Q     Q     
|----------------------------------|---------------------------|---------------------------------|
|*---------------------12----------|---------------------------|---------------------12----12----|
|*--14S--10S--12S--14--------10----|----------10--10S----5S----|--14S--10S--12S--14--------------|
|----------------------------------|--8----8-------------------|---------------------------------|


   E   E   Q     E   E   Q     3x   E    E    E    Q.      Q       Q     Q     H         
-------------------------------||-------------------------------|-----------------------|
--14--14--12------------------*||-------------------------12----|--L--------------------|
----------------12--12--14----*||--14S--10S--12S--14------------|-------14----10--------|
-------------------------------||-------------------------------|-----------------------|


     E   E   E   Q.      Q       E   E   Q     H            E   E   E   Q.      Q     
|---12--14--12--12------------|-------------------------|--12--14--12--12------------|
|*----------------------12----|--L------12S----5--------|----------------------12----|
|*----------------------------|-----14------------------|----------------------------|
|-----------------------------|-------------------------|----------------------------|


  E   E   Q      H               E   Q     E   E   Q.         E   Q     E   S   S  S   S  Q     3x
---------------------------||-----------------14--14------|-------------------------------------||
--L------12S----17--------*||*--12--12----12--------------|--14--14----12--14p-12--------------*||
-----14-------------------*||*----------------------------|-----------------------14p-12-10----*||
---------------------------||-----------------------------|-------------------------------------||


   E   E  H.              W                    E   E   E  E   Q     Q             
-----------------------|-------------------|--16--12--14--L\--7----12----|
--12--12--L------------|--L----------------|-----------------------------|
-----------------------|-------------------|-----------------------------|
-----------------------|-------------------|-----------------------------|

Q     Q      Q     Q
---------------------------|
--12-----------------------|
--------10S----14----12----|
---------------------------|


   W                  
--------------------||
--------------------||
--10----------------||
--------------------||




Duration Legend
---------------
W - whole
H - half
Q - quarter
E - 8th
S - 16th
T - 32nd
X - 64th
. - note dotted
|-n-|  - n-tuplets


Tablature Legend
----------------
L - tied note
x - dead note
g - grace note
(n) - ghost note
> - accentuded note
NH - natural harmonic
AH - artificial harmonic
TH - tapped harmonic
SH - semi harmonic
PH - pitch harmonic
h - hammer on
p - pull off
b - bend
br - bendRelease
pb - preBend
pbr - preBendRelease
brb - bendReleaseBend
\n/ - tremolo bar dip
\n - tremolo bar dive
-/n - tremolo bar Release up
/n\ - tremolo bar inverted dip
/n - tremolo bar return
-\n - tremolo bar Release down
S - shift slide
s - legato slide
/ -  slide into from below or out of upwards
\ -  slide into from above or out of downwards
~ - vibrato
W - wide vibrato
tr - trill
TP - tremolo picking
T - tapping
S - slap
P - pop
< - fade in
^ - brush up
v - brush down
            
Hard to play? Try these video lessons and learn fast. | Correct




comments powered by Disqus
↑ Back to top | Tablatures and chords are parodies/interpretations of the original songs. You may use it for private study, scholarship, research or language learning purposes only