» » »

Misfits, American Psycho Tabs (ver.3)

Artists:  A B C D E F G H I J K L M N O P Q R S T U V W X Y Z # 

American Psycho Tabs (ver.3)

Misfits Tabs
 Rating:
4/5 (4 votes)
American Psycho lessons Tabs too difficult? Try these video lessons and learn fast
1
                
SAME DEAL AS "DIG UP HER BONES"
YOU CAN START AT THE INTRO AND PLAY TILL THE SONG IS
WITHOUT GOING BACK TO ANY OTHER PART OF THE TAB

INTRO (WOOOOAH, WOAH OH OH OH)
E|-----------------------------------------------------------------------------|
B|-----------------------------------------------------------------------------|
G|-6-6-6-6---------6-6-6-6---------6-6-6-6-------------------------------------|
D|-6-6-6-6-6-6-6-6-6-6-6-6-6-6-6-6-6-6-6-6-6-6-6-6-2-2-2-2-5-5-5-5-------------|
A|-4-4-4-4-6-6-6-6-4-4-4-4-6-6-6-6-4-4-4-4-6-6-6-6-2-2-2-2-5-5-5-5-------------|
E|---------4-4-4-4---------4-4-4-4---------4-4-4-4-0-0-0-0-3-3-3-3-------------|

LEAD INTO THE VERSE:
E|-----------------------------------------------------------------------------|
B|-----------------------------------------------------------------------------|
G|-----------------5-5-5-5-----------------------------------------------------|
D|-3-3-3-3-6-6-6-6-5-5-5-5--6--5-----------------------------------------------|
A|-3-3-3-3-6-6-6-6-3-3-3-3--6--5-----------------------------------------------|
E|-1-1-1-1-4-4-4-4----------4--3-----------------------------------------------|

E|-----------------------------------------------------------------------------|
B|-----------------------------------------------------------------------------|
G|-----------------5-5-5-5-----------------------------------------------------|
D|-3-3-3-3-6-6-6-6-5-5-5-5--6--5-----------------------------------------------|
A|-3-3-3-3-6-6-6-6-3-3-3-3--6--5-----------------------------------------------|
E|-1-1-1-1-4-4-4-4----------4--3-----------------------------------------------|

VERSE:

E|-----------------------------------------------------------------------------|
B|-----------------------------------------------------------------------------|
G|-----------------5-5-5-5-----------------------------------------------------|
D|-3-3-3-3-6-6-6-6-5-5-5-5--6--5-----------------------------------------------|
A|-3-3-3-3-6-6-6-6-3-3-3-3--6--5-----------------------------------------------|
E|-1-1-1-1-4-4-4-4----------4--3-----------------------------------------------|

E|-----------------------------------------------------------------------------|
B|-----------------------------------------------------------------------------|
G|-----------------5-5-5-5-----------------------------------------------------|
D|-3-3-3-3-6-6-6-6-5-5-5-5--6--5-----------------------------------------------|
A|-3-3-3-3-6-6-6-6-3-3-3-3--6--5-----------------------------------------------|
E|-1-1-1-1-4-4-4-4----------4--3-----------------------------------------------|

E|-----------------------------------------------------------------------------|
B|-----------------------------------------------------------------------------|
G|-----------------5-5-5-5-----------------------------------------------------|
D|-3-3-3-3-6-6-6-6-5-5-5-5--6--5-----------------------------------------------|
A|-3-3-3-3-6-6-6-6-3-3-3-3--6--5-----------------------------------------------|
E|-1-1-1-1-4-4-4-4----------4--3-----------------------------------------------|

E|-----------------------------------------------------------------------------|
B|-----------------------------------------------------------------------------|
G|-----------------5-5-5-5-----------------------------------------------------|
D|-3-3-3-3-6-6-6-6-5-5-5-5--6--5-----------------------------------------------|
A|-3-3-3-3-6-6-6-6-3-3-3-3--6--5-----------------------------------------------|
E|-1-1-1-1-4-4-4-4----------4--3-----------------------------------------------|

E|-----------------------------------------------------------------------------|
B|-----------------------------------------------------------------------------|
G|-----------------5-5-5-5-----------------------------------------------------|
D|-3-3-3-3-6-6-6-6-5-5-5-5--6--5-----------------------------------------------|
A|-3-3-3-3-6-6-6-6-3-3-3-3--6--5-----------------------------------------------|
E|-1-1-1-1-4-4-4-4----------4--3-----------------------------------------------|

INTERLUDE BACK INTO THE INTRO
E|-----------------------------------------------------------------------------|
B|-----------------------------------------------------------------------------|
G|-6-6-6-6---------6-6-6-6---------6-6-6-6-------------------------------------|
D|-6-6-6-6-6-6-6-6-6-6-6-6-6-6-6-6-6-6-6-6-6-6-6-6-2-2-2-2-5-5-5-5-------------|
A|-4-4-4-4-6-6-6-6-4-4-4-4-6-6-6-6-4-4-4-4-6-6-6-6-2-2-2-2-5-5-5-5-------------|
E|---------4-4-4-4---------4-4-4-4---------4-4-4-4-0-0-0-0-3-3-3-3-------------|

LEAD INTO THE VERSE:
E|-----------------------------------------------------------------------------|
B|-----------------------------------------------------------------------------|
G|-----------------5-5-5-5-----------------------------------------------------|
D|-3-3-3-3-6-6-6-6-5-5-5-5--6--5-----------------------------------------------|
A|-3-3-3-3-6-6-6-6-3-3-3-3--6--5-----------------------------------------------|
E|-1-1-1-1-4-4-4-4----------4--3-----------------------------------------------|

E|-----------------------------------------------------------------------------|
B|-----------------------------------------------------------------------------|
G|-----------------5-5-5-5-----------------------------------------------------|
D|-3-3-3-3-6-6-6-6-5-5-5-5--6--5-----------------------------------------------|
A|-3-3-3-3-6-6-6-6-3-3-3-3--6--5-----------------------------------------------|
E|-1-1-1-1-4-4-4-4----------4--3-----------------------------------------------|

VERSE:

E|-----------------------------------------------------------------------------|
B|-----------------------------------------------------------------------------|
G|-----------------5-5-5-5-----------------------------------------------------|
D|-3-3-3-3-6-6-6-6-5-5-5-5--6--5-----------------------------------------------|
A|-3-3-3-3-6-6-6-6-3-3-3-3--6--5-----------------------------------------------|
E|-1-1-1-1-4-4-4-4----------4--3-----------------------------------------------|

E|-----------------------------------------------------------------------------|
B|-----------------------------------------------------------------------------|
G|-----------------5-5-5-5-----------------------------------------------------|
D|-3-3-3-3-6-6-6-6-5-5-5-5--6--5-----------------------------------------------|
A|-3-3-3-3-6-6-6-6-3-3-3-3--6--5-----------------------------------------------|
E|-1-1-1-1-4-4-4-4----------4--3-----------------------------------------------|

E|-----------------------------------------------------------------------------|
B|-----------------------------------------------------------------------------|
G|-----------------5-5-5-5-----------------------------------------------------|
D|-3-3-3-3-6-6-6-6-5-5-5-5--6--5-----------------------------------------------|
A|-3-3-3-3-6-6-6-6-3-3-3-3--6--5-----------------------------------------------|
E|-1-1-1-1-4-4-4-4----------4--3-----------------------------------------------|

E|-----------------------------------------------------------------------------|
B|-----------------------------------------------------------------------------|
G|-----------------5-5-5-5-----------------------------------------------------|
D|-3-3-3-3-6-6-6-6-5-5-5-5--6--5-----------------------------------------------|
A|-3-3-3-3-6-6-6-6-3-3-3-3--6--5-----------------------------------------------|
E|-1-1-1-1-4-4-4-4----------4--3-----------------------------------------------|

E|-----------------------------------------------------------------------------|
B|-----------------------------------------------------------------------------|
G|-----------------5-5-5-5-----------------------------------------------------|
D|-3-3-3-3-6-6-6-6-5-5-5-5--6--5-----------------------------------------------|
A|-3-3-3-3-6-6-6-6-3-3-3-3--6--5-----------------------------------------------|
E|-1-1-1-1-4-4-4-4----------4--3-----------------------------------------------|

PRE-CHORUS:
E|-----------------------------------------------------------------------------|
B|-----------------------------------------------------------------------------|
G|-6-6-6-6---------6-6-6-6---------6-6-6-6-------------------------------------|
D|-6-6-6-6-6-6-6-6-6-6-6-6-6-6-6-6-6-6-6-6-6-6-6-6-2-2-2-2-5-5-5-5-------------|
A|-4-4-4-4-6-6-6-6-4-4-4-4-6-6-6-6-4-4-4-4-6-6-6-6-2-2-2-2-5-5-5-5-------------|
E|---------4-4-4-4---------4-4-4-4---------4-4-4-4-0-0-0-0-3-3-3-3-------------|

CHORUS
E|-----------------------------------------------------------------------------|
B|-----------------------------------------------------------------------------|
G|-7-7-7-7---------7-7-7-7---------7-7-7-7---------7-7-7-7---------------------|
D|-7-7-7-7-5-5-7-7-7-7-7-7-5-5-7-7-7-7-7-7-5-5-7-7-7-7-7-7-5-5-5-5-------------|
A|-5-5-5-5-5-5-7-7-5-5-5-5-5-5-7-7-5-5-5-5-5-5-7-7-5-5-5-5-5-5-5-5-------------|
E|---------3-3-5-5---------3-3-5-5---------3-3-5-5---------3-3-3-3-------------|

E|-----------------------------------------------------------------------------|
B|-----------------------------------------------------------------------------|
G|-7-7-7-7---------7-7-7-7---------7-7-7-7---------7-7-7-7-6-6-6-6-------------|
D|-7-7-7-7-5-5-5-5-7-7-7-7-5-5-5-5-7-7-7-7-5-5-5-5-7-7-7-7-6-6-6-6-------------|
A|-5-5-5-5-5-5-5-5-5-5-5-5-5-5-5-5-5-5-5-5-5-5-5-5-5-5-5-5-4-4-4-4-------------|
E|---------3-3-3-3---------3-3-3-3---------3-3-3-3-----------------------------|


LEAD INTO THE VERSE:
E|-----------------------------------------------------------------------------|
B|-----------------------------------------------------------------------------|
G|-----------------5-5-5-5-----------------------------------------------------|
D|-3-3-3-3-6-6-6-6-5-5-5-5--6--5-----------------------------------------------|
A|-3-3-3-3-6-6-6-6-3-3-3-3--6--5-----------------------------------------------|
E|-1-1-1-1-4-4-4-4----------4--3-----------------------------------------------|

E|-----------------------------------------------------------------------------|
B|-----------------------------------------------------------------------------|
G|-----------------5-5-5-5-----------------------------------------------------|
D|-3-3-3-3-6-6-6-6-5-5-5-5--6--5-----------------------------------------------|
A|-3-3-3-3-6-6-6-6-3-3-3-3--6--5-----------------------------------------------|
E|-1-1-1-1-4-4-4-4----------4--3-----------------------------------------------|

VERSE:

E|-----------------------------------------------------------------------------|
B|-----------------------------------------------------------------------------|
G|-----------------5-5-5-5-----------------------------------------------------|
D|-3-3-3-3-6-6-6-6-5-5-5-5--6--5-----------------------------------------------|
A|-3-3-3-3-6-6-6-6-3-3-3-3--6--5-----------------------------------------------|
E|-1-1-1-1-4-4-4-4----------4--3-----------------------------------------------|

E|-----------------------------------------------------------------------------|
B|-----------------------------------------------------------------------------|
G|-----------------5-5-5-5-----------------------------------------------------|
D|-3-3-3-3-6-6-6-6-5-5-5-5--6--5-----------------------------------------------|
A|-3-3-3-3-6-6-6-6-3-3-3-3--6--5-----------------------------------------------|
E|-1-1-1-1-4-4-4-4----------4--3-----------------------------------------------|

E|-----------------------------------------------------------------------------|
B|-----------------------------------------------------------------------------|
G|-----------------5-5-5-5-----------------------------------------------------|
D|-3-3-3-3-6-6-6-6-5-5-5-5--6--5-----------------------------------------------|
A|-3-3-3-3-6-6-6-6-3-3-3-3--6--5-----------------------------------------------|
E|-1-1-1-1-4-4-4-4----------4--3-----------------------------------------------|

E|-----------------------------------------------------------------------------|
B|-----------------------------------------------------------------------------|
G|-----------------5-5-5-5-----------------------------------------------------|
D|-3-3-3-3-6-6-6-6-5-5-5-5--6--5-----------------------------------------------|
A|-3-3-3-3-6-6-6-6-3-3-3-3--6--5-----------------------------------------------|
E|-1-1-1-1-4-4-4-4----------4--3-----------------------------------------------|

E|-----------------------------------------------------------------------------|
B|-----------------------------------------------------------------------------|
G|-----------------5-5-5-5-----------------------------------------------------|
D|-3-3-3-3-6-6-6-6-5-5-5-5--6--5-----------------------------------------------|
A|-3-3-3-3-6-6-6-6-3-3-3-3--6--5-----------------------------------------------|
E|-1-1-1-1-4-4-4-4----------4--3-----------------------------------------------|

PRE-CHORUS:
E|-----------------------------------------------------------------------------|
B|-----------------------------------------------------------------------------|
G|-6-6-6-6---------6-6-6-6---------6-6-6-6-------------------------------------|
D|-6-6-6-6-6-6-6-6-6-6-6-6-6-6-6-6-6-6-6-6-6-6-6-6-2-2-2-2-5-5-5-5-------------|
A|-4-4-4-4-6-6-6-6-4-4-4-4-6-6-6-6-4-4-4-4-6-6-6-6-2-2-2-2-5-5-5-5-------------|
E|---------4-4-4-4---------4-4-4-4---------4-4-4-4-0-0-0-0-3-3-3-3-------------|

CHORUS
E|-----------------------------------------------------------------------------|
B|-----------------------------------------------------------------------------|
G|-7-7-7-7---------7-7-7-7---------7-7-7-7---------7-7-7-7---------------------|
D|-7-7-7-7-5-5-7-7-7-7-7-7-5-5-7-7-7-7-7-7-5-5-7-7-7-7-7-7-5-5-5-5-------------|
A|-5-5-5-5-5-5-7-7-5-5-5-5-5-5-7-7-5-5-5-5-5-5-7-7-5-5-5-5-5-5-5-5-------------|
E|---------3-3-5-5---------3-3-5-5---------3-3-5-5---------3-3-3-3-------------|

E|-----------------------------------------------------------------------------|
B|-----------------------------------------------------------------------------|
G|-7-7-7-7---------7-7-7-7---------7-7-7-7---------7-7-7-7-6-6-6-6-------------|
D|-7-7-7-7-5-5-5-5-7-7-7-7-5-5-5-5-7-7-7-7-5-5-5-5-7-7-7-7-6-6-6-6-------------|
A|-5-5-5-5-5-5-5-5-5-5-5-5-5-5-5-5-5-5-5-5-5-5-5-5-5-5-5-5-4-4-4-4-------------|
E|---------3-3-3-3---------3-3-3-3---------3-3-3-3-----------------------------|

OUTRO:
E|-----------------------------------------------------------------------------|
B|-----------------------------------------------------------------------------|
G|-----------------5-5-5-5-----------------------------------------------------|
D|-3-3-3-3-6-6-6-6-5-5-5-5--6--5-----------------------------------------------|
A|-3-3-3-3-6-6-6-6-3-3-3-3--6--5-----------------------------------------------|
E|-1-1-1-1-4-4-4-4----------4--3-----------------------------------------------|

E|-----------------------------------------------------------------------------|
B|-----------------------------------------------------------------------------|
G|-----------------5-5-5-5-----------------------------------------------------|
D|-3-3-3-3-6-6-6-6-5-5-5-5--6--5-----------------------------------------------|
A|-3-3-3-3-6-6-6-6-3-3-3-3--6--5-----------------------------------------------|
E|-1-1-1-1-4-4-4-4----------4--3-----------------------------------------------|

E|-----------------------------------------------------------------------------|
B|-----------------------------------------------------------------------------|
G|-----------------5-5-5-5-----------------------------------------------------|
D|-3-3-3-3-6-6-6-6-5-5-5-5--6--5-----------------------------------------------|
A|-3-3-3-3-6-6-6-6-3-3-3-3--6--5-----------------------------------------------|
E|-1-1-1-1-4-4-4-4----------4--3-----------------------------------------------|

E|-----------------------------------------------------------------------------|
B|-----------------------------------------------------------------------------|
G|-----------------5-5-5-5-----------------------------------------------------|
D|-3-3-3-3-6-6-6-6-5-5-5-5--6--5-----------------------------------------------|
A|-3-3-3-3-6-6-6-6-3-3-3-3--6--5-----------------------------------------------|
E|-1-1-1-1-4-4-4-4----------4--3-----------------------------------------------|

E|-----------------------------------------------------------------------------|
B|-----------------------------------------------------------------------------|
G|-----------------5-5-5-5-----------------------------------------------------|
D|-3-3-3-3-6-6-6-6-5-5-5-5--6--5-----------------------------------------------|
A|-3-3-3-3-6-6-6-6-3-3-3-3--6--5-----------------------------------------------|
E|-1-1-1-1-4-4-4-4----------4--3-----------------------------------------------|

E|-----------------------------------------------------------------------------|
B|-----------------------------------------------------------------------------|
G|-----------------5-5-5-5-----------------------------------------------------|
D|-3-3-3-3-6-6-6-6-5-5-5-5--6--5-----------------------------------------------|
A|-3-3-3-3-6-6-6-6-3-3-3-3--6--5-----------------------------------------------|
E|-1-1-1-1-4-4-4-4----------4--3-----------------------------------------------|

E|-----------------------------------------------------------------------------|
B|-----------------------------------------------------------------------------|
G|-----------------5-5-5-5-----------------------------------------------------|
D|-3-3-3-3-6-6-6-6-5-5-5-5--6--5-----------------------------------------------|
A|-3-3-3-3-6-6-6-6-3-3-3-3--6--5-----------------------------------------------|
E|-1-1-1-1-4-4-4-4----------4--3-----------------------------------------------|

END ON:

E|-----------------------------------------------------------------------------|
B|-----------------------------------------------------------------------------|
G|-----------------------------------------------------------------------------|
D|-3---------------------------------------------------------------------------|
A|-3---------------------------------------------------------------------------|
E|-1---------------------------------------------------------------------------|
            
Submit corrections

comments powered by Disqus
↑ Back to top | Misfits Tabs for American Psycho. Lyrics for acoustic guitar and electric guitar. 1 Tablatures and chords are parodies/interpretations of the original songs. You may use it for private study, scholarship, research or language learning purposes only