» » »

Misfits, Saturday Night Tabs (ver.1)

Artists:  A B C D E F G H I J K L M N O P Q R S T U V W X Y Z # 

Saturday Night Tabs (ver.1)

Misfits Tabs
 Rating:
4/5 (4 votes)
Saturday Night lessons Tabs too difficult? Try these video lessons and learn fast
                Music:		No One

Figure out the strums yourself
E|-----------------------------------------------------------
B|-----------------------------------------------------------
G|-----6---7---4------------------------------------------------
D|-----6---7---4---5---7------------------------------------------
A|-----4---5---2---5---7------------------------------------------
E|-----------------3---5---------------------------------------

(Palm muted)
E|-----------------------------------------------------------
B|-----------------------------------------------------------
G|-----7---4---------------------------------------------------
D|-----7---4---5---7---------------------------------------------
A|-----5---2---5---7---------------------------------------------
E|-------------3---5-------------------------------------------

E|-----------------------------------------------------------
B|-----------------------------------------------------------
G|-----------------------------------------------------------
D|-----------------------------------------------------------
A|-----------------------------------------------------------
E|-----------------------------------------------------------

E|-----------------------------------------------------------
B|-----------------------------------------------------------
G|-----------------------------------------------------------
D|-----------------------------------------------------------
A|-----------------------------------------------------------
E|-----------------------------------------------------------

E|-----------------------------------------------------------
B|-----------------------------------------------------------
G|-----------------------------------------------------------
D|-----------------------------------------------------------
A|-----------------------------------------------------------
E|-----------------------------------------------------------

Thanks for looking at the tab haha good look with the rest
            
Submit corrections

comments powered by Disqus
↑ Back to top | Misfits Tabs for Saturday Night. Lyrics for acoustic guitar and electric guitar. Tablatures and chords are parodies/interpretations of the original songs. You may use it for private study, scholarship, research or language learning purposes only