» » »

Misfits, American Psycho Bass tabs (ver.2)

Artists:  A B C D E F G H I J K L M N O P Q R S T U V W X Y Z # 

American Psycho Bass tabs (ver.2)

Misfits Tabs
 Rating:
4/5 (4 votes)
American Psycho lessons Tabs too difficult? Try these video lessons and learn fast
                Band: Misfits
Bassist: Jerry Only

This song is just excellent

Abominable Dr. Phibes
Riff 1
Gb---------------------------------------------------|
Db---------------------------------------------------|
Ab------2-------3------------------------------------|
Eb--0-------0----------------------------------------|
Play this riff twice (always)
Riff 2
Gb--------------------------------------------------------|
Db--------------------------------------------------------|
Ab--5--3--0--2--3--2-----0--------------------------------|
Eb--------------------3-----------------------------------|
This riff goes after Riff 1 (always)
Outro
Gb----------------------------------------------------|
Db----------------------------------------------------|
Ab----------------------------------------------------|
Eb--3--2--0-------------------------------------------|
After playing everything x2, play this once.

American Psycho
Main Riff (I call it that way ‘cuz its played a lot)
Gb------------------------------------------------|
Db------------------------------------------------|
Ab------------------------------------------------|
Eb--1111-4444-8888-3-2----------------------------|
                  X6 (in the outro just play it the same way, but in the end play one 
1 in the Eb string)
Whoa-Oh Part
Gb---------------------------------------------------------|
Db---------------------------------------------------------|
Ab--55555555-----------------------------------------------|
Eb-----------33333333--------------------------------------|
          X3
Gb------------------------------------------------|
Db------------------------------------------------|
Ab--66666666-99999999-----------------------------|
Eb------------------------------------------------|
            X1
American Psycho Part
Gb---------------------------------------------------------|
Db---------------------------------------------------------|
Ab--55555555-----------------------------------------------|
Eb-----------33333333--------------------------------------|
X3
Gb--------------------------------------------------|
Db--------------------------------------------------|
Ab--55555555-44444444-------------------------------|
Eb--------------------------------------------------|


Abominable Dr. Phibes:
Riff 1 x1
Riff 2 x1
Riff 1 x1
Riff 2 x1
Outro x1
American Psycho:
Whoa-Oh Part x1
Main Riff x1
Whoa-Oh Part x1
Main Riff x1
Whoa-Oh Part x1
American Psycho Part x1
Main Riff x1
Whoa-Oh Part x1
American Psycho x1
            
Submit corrections

comments powered by Disqus
↑ Back to top | Misfits Bass for American Psycho. Lyrics for acoustic guitar and electric guitar. Tablatures and chords are parodies/interpretations of the original songs. You may use it for private study, scholarship, research or language learning purposes only