» » »

Where Eagles Dare Tabs (ver.1)

Artists:  A B C D E F G H I J K L M N O P Q R S T U V W X Y Z # 

Where Eagles Dare Tabs (ver.1)

Misfits
Rating:
0/5 (0 votes)

Hard to play? Try these video lessons and learn fast.
                Tuning: Standard


palm muting = .
slide  =  /
let ring  = r
 
Intro Of Bass And Drums,


Verse
E-------------------------
B-------------------------
G-------------------------
D-77777777-5--------------
A-77777777-5--------------
E-55555555-3--------------

Chorus
E-------------------------
B-------------------------
G-5-5-5-5-5-5-------------
D-5-5-5-5-5-5-33-55-------
A-3-3-3-3-3-3-33-55-------
E-------------11-33-------

Outro 
E-------------------------
B-------------------------
G-55--55--55----------5r--
D-55--55--55-33-55----5r--
A-33--33--33-33-55----3r--
E------------11-33--------

Order:
Verse  10x
Chorus  4x
Verse   6x
Chorus  4x
Verse  10x
Chorus  8x
Outro
            
Hard to play? Try these video lessons and learn fast. | Correct




comments powered by Disqus
↑ Back to top | Tablatures and chords are parodies/interpretations of the original songs. You may use it for private study, scholarship, research or language learning purposes only