» » »

Misfits, American Psycho Tabs (ver.2)

Artists:  A B C D E F G H I J K L M N O P Q R S T U V W X Y Z # 

American Psycho Tabs (ver.2)

Misfits Tabs
 Rating:
4/5 (4 votes)
American Psycho lessons Tabs too difficult? Try these video lessons and learn fast
1
                Intro (Whoa-oh part)
E|---------------------------|
B|---------------------------|
G|--5-----5-----5-----8--11--|
D|--5--5--5--5--5--5--8--11--|
A|--3--5--3--5--3--5--6--9---|
E|-----3-----3-----3---------|

Verse/Fill (Inside a wall street mind…)
E|---------------------------|
B|---------------------------|
G|--------4------------------|
D|--2--5--4--5--4------------|
A|--2--5--2--5--4------------|
E|--0--3-----3--2------------|
    ^------^
    palm mute

PreChorus (A machine of penalty…)
E|---------------------------|
B|---------------------------|
G|--6------------------------|
D|--6--4--6------------------|
A|--4--4--6------------------|
E|-----2--4------------------|
   
Chorus (You’re looking through the eyes…)
E|---------------------------
B|---------------------------
G|--6-----6-----6-----6------
D|--6--4--6--4--6--4--6--4---
A|--4--4--4--4--4--4--2--4---
E|-----2-----2-----2-----2---
                         ^ 
                         PM

Song Order
Intro
Fill
Verse
Intro
Fill
Verse
Intro
PreChorus
Chorus
Fill
Verse
Intro
PreChorus
Chorus
Fill-end on E

Note: The song sound like it changes keys between the intro/verse and the prechorus/chorus.  However it does not.  If you would like to add a lead anywhere in the song use the E major/c# minor scale
            
Submit corrections

comments powered by Disqus
↑ Back to top | Misfits Tabs for American Psycho. Lyrics for acoustic guitar and electric guitar. 1 Tablatures and chords are parodies/interpretations of the original songs. You may use it for private study, scholarship, research or language learning purposes only