» » »

Trouble Bass tabs (ver.2)

Artists:  A B C D E F G H I J K L M N O P Q R S T U V W X Y Z # 

Trouble Bass tabs (ver.2)

Metronomy
Rating:
0/5 (0 votes)

Hard to play? Try these video lessons and learn fast.
                Trouble Metronomy.

Intro and verse

G------------------------------------------------------------------------------------------------|
D------------------------------------------------------------------------------------------11-h--|
A-----------4-2-5555555-2-2-2--2-----------------------0-5-0-5-0-5-0-5-0-5-0-5-0-5-0-5-0-5-----12|
E-5--2-5-2-5----------------------0--77777777--5-5-5-5-------------------------------------------|

and then:

(Prechorus)
But what I do is always come back to you...
G------------------------------------------------------------------------------------------------|
D--------------------------------------------------------------------------------------77--7--5--|
A------------------------4--4-4---4---55555-5--44444-4---33333--33333--3------------------------9|
E7--77-7-7--5--2--3---3-3-----------------------------------------------3--3h6-6--5--55----------|

(Chorus)
There's one thing causing you trouble
G---------------------------------------------------------|
D----------------------------5--0--5----5--9--5--9--9h----|
A--0--5--0--5--7--9--5--9--9------------------------------|
E---------------------------------------------------------|

Verse (x2)
Prechorus (x1)
Chorus (x5)

End
G-------------------|
D-------------------|
A--5----------------|
E-------------------|

Viva México ;)
            
Hard to play? Try these video lessons and learn fast. | Correct




comments powered by Disqus
↑ Back to top | Tablatures and chords are parodies/interpretations of the original songs. You may use it for private study, scholarship, research or language learning purposes only