» » »

1 String Strung Bass tabs (ver.1)

Artists:  A B C D E F G H I J K L M N O P Q R S T U V W X Y Z # 

1 String Strung Bass tabs (ver.1)

Metronomy
Rating:
0/5 (0 votes)

Hard to play? Try these video lessons and learn fast.
                -------------------------------------------------------------------------------
-------------------------------------------------------------------------------


 Tuning:Standard

G|---------------------------------------|
D|---------------------------------------|
A|-----3-4-44-44------/3-4-44-44---------|
E|1-11-----------2-22--------------------|

G|------------------------|
D|------------------------|
A|------3-4-44-44---------|
E|6---5-------------------|

G|-----------------------------|------------------------------|
D|-----------------------------|------------------------------|
A|-----------------------------|----------3-4-44-44-----------|
E|00000000-22222222-33333333---|-22222222---------------------|
            
Hard to play? Try these video lessons and learn fast. | Correct




comments powered by Disqus
↑ Back to top | Tablatures and chords are parodies/interpretations of the original songs. You may use it for private study, scholarship, research or language learning purposes only