» » »

Metronomy, Everything Goes My Way Bass tabs (ver.1)

Artists:  A B C D E F G H I J K L M N O P Q R S T U V W X Y Z # 

Everything Goes My Way Bass tabs (ver.1)

Metronomy Tabs
 Rating:
4.2/5 (5 votes)
Everything Goes My Way lessons Tabs too difficult? Try these video lessons and learn fast
                -------------------------------------------------------------------------------
-------------------------------------------------------------------------------


Tuning: Standard


[Intro]
G|-----------------------(10)-|----------------------9-8-|
D|----------------------------|--------------------------|
A|-5-55--7-77--1-11--8-88-----|-5-55--7-77--1-11-8-87-6--|
E|----------------------------|--------------------------|


[Verse #1]
G|-----------------------(10)-|
D|----------------------------|
A|-5-55--7-77--1-11--8-88-----|
E|----------------------------|x4


[Chorus #1] "And now everything goes my way"
G|---3-2---------7-7---10-----|
D|---------5-5------------10--|
A|-1--1--------5--5--8---8----|
E|-------3--3-----------------|x2


"Love, I'm in love..."
G|-----------------------(10)-|----------------------9-8-|
D|----------------------------|--------------------------|
A|-5-55--7-77--1-11--8-88-----|-5-55--7-77--1-11-8-87-6--|
E|----------------------------|--------------------------|


[Verse #2] "Why give it all on you..."
G|--------107-----------(10)-||-----------------------(10)-|
D|----32-2---7---------------||----------------------------|
A|-535--------1-11--8-88-----||-5-55--7--77--1-11-8-88-----|
E|---------------------------||----------------------------|x3


[Chorus #2] "And now everything goes my way"
G|---3-2---------7-7---10-----|
D|---------5-5------------10--|
A|-1--1--------5--5--8---8----|
E|-------3--3-----------------|x2


"Love, I'm in love..."
G|-----------------------(10)-|----------------------9-8-|
D|----------------------------|--------------------------|
A|-5-55--7-77--1-11--8-88-----|-5-55--7-77--1-11-8-87-6--|
E|----------------------------|--------------------------|

G|-----------------------(10)-|
D|----------------------------|
A|-5-55--7-77--1-11--8-88-----|
E|----------------------------|(To the end)


Enjoy !


| /  slide up
| \  slide down
| h  hammer-on
| p  pull-off
| ~  vibrato
| +  harmonic
| x  Mute note
===============================================================================
            
Submit corrections

comments powered by Disqus
↑ Back to top | Metronomy Bass for Everything Goes My Way. Lyrics for acoustic guitar and electric guitar. Tablatures and chords are parodies/interpretations of the original songs. You may use it for private study, scholarship, research or language learning purposes only