» » »

Metronomy, My Heart Rate Rapid Bass tabs (ver.1)

Artists:  A B C D E F G H I J K L M N O P Q R S T U V W X Y Z # 

My Heart Rate Rapid Bass tabs (ver.1)

Metronomy Tabs
 Rating:
4.2/5 (5 votes)
My Heart Rate Rapid lessons Tabs too difficult? Try these video lessons and learn fast
1
                -------------------------------------------------------------------------------
-------------------------------------------------------------------------------


Tuning: Standard Bass (EADG)

Intro & Verse

(pop and slap)
G|-------------------------------------------6------6-----------------------|
D|----4-------4-----4------4-----4-----4------------------------------------|
A|----------------------------------------4-----4-4-------------------------|
E|-2-----2-2-----2-----2-2----2----2-2--------------------------------------|x3

G|-------------------------------------------6------------------------------|
D|----4-------4-----4------4-----4-----4------------------------------------|
A|----------------------------------------4-----2-2-------------------------|
E|-2-----2-2-----2-----2-2----2----2-2--------------------------------------|

Bridge

G|-----7------7------11------11-----6-----6----6------6---------------------|
D|--------------------------------------------------------------------------|
A|--5----5-5------9----9-9-------4----4-4----4----4-4-----------------------|
E|--------------------------------------------------------------------------|

Chorus

(beware 5 bar phrase)
G|--------------------------------------------------------------------------|
D|--------------------------------------9--9-9-9---7--7-7-7-----------------|
A|-9--9-9-9---7--7-7-7------------------------------------------------------|
E|-----------------------10--10-10-10---------------------------------------|

And that's pretty much it. Repeat as necessary

| /  slide up
| \  slide down
| h  hammer-on
| p  pull-off
| ~  vibrato
| +  harmonic
| x  Mute note
===============================================================================
            
Submit corrections

comments powered by Disqus
↑ Back to top | Metronomy Bass for My Heart Rate Rapid. Lyrics for acoustic guitar and electric guitar. 1 Tablatures and chords are parodies/interpretations of the original songs. You may use it for private study, scholarship, research or language learning purposes only