» » »

Metronomy, Trouble Bass tabs (ver.1)

Artists:  A B C D E F G H I J K L M N O P Q R S T U V W X Y Z # 

Trouble Bass tabs (ver.1)

Metronomy Tabs
 Rating:
4/5 (4 votes)
Trouble lessons Tabs too difficult? Try these video lessons and learn fast
1
                -------------------------------------------------------------------------------
-------------------------------------------------------------------------------


Tuning: Standard


Well, It's not 100% accurate, but it does sounds like it.


[Main Riff] 
[a] Bass comes in at 1:02
G|-------------------------------------------------------6--|
D|--------------------------------------------------------7-|
A|-----------55555-542-0--22222-202-05-05-05-05-05-05-05----|
E|-5-2525-97------------7-----------------------------------|

[b]
G|-----------------------------------------------------6--|
D|------------------------------------------------------7-|
A|---------55555-542-0--22222-202-05-05-05-05-05-05-05----|
E|-2525-97------------7-----------------------------------|

[c]
G|-----------------------------------------------------6--|
D|------------------------------------------------------9-|
A|---------55555-542-0--22222-202-05-05-05-05-05-05-05----|
E|-2525-97------------7-----------------------------------|

[d]
G|------------------------------------------------------------------|
D|----------------------------------------------------------77-5544-|
A|-2200--------4-44-45555-54444-43333-33333-3-----------------------|
E|-----23--33-3------------------------------3--33-36-65-55---------|x2

[Chorus]
G|-----------------------------------|
D|-----------------------------------|
A|-5-05-579-59-910-510-1014-1014-16\-|
E|-----------------------------------|x2

Then :
[a] x1
[c] x1
[d] x1
[Chorus] x3

[End]
G|-------------------------------------|
D|-------------------------------------|
A|-5-05-579-59-910-510-1014-1014-16\-5-|
E|-------------------------------------|x2


Enjoy !


| /  slide up
| \  slide down
| h  hammer-on
| p  pull-off
| ~  vibrato
| +  harmonic
| x  Mute note
===============================================================================
            
Submit corrections

comments powered by Disqus
↑ Back to top | Metronomy Bass for Trouble. Lyrics for acoustic guitar and electric guitar. 1 Tablatures and chords are parodies/interpretations of the original songs. You may use it for private study, scholarship, research or language learning purposes only