» » »

Dance With Somebody Bass tabs (ver.2)

Artists:  A B C D E F G H I J K L M N O P Q R S T U V W X Y Z # 

Dance With Somebody Bass tabs (ver.2)

Mando Diao
Rating:
5/5 (12 votes)

Hard to play? Try these video lessons and learn fast.
                -------------------------------------------------------------------------------
			     DANCE WITH SOMEBODY - Mando Diao
-------------------------------------------------------------------------------


Tuning: standart



  Intro            x4      Verse x2                         verse end (1)        verse end (2)    

G|--------------|---------|-----------------------4-6--(6)-|-----------6~---64---|------------|
D|--------------|---------|-4---4~--42--------7~------6----|-2-------6--------65-|------------|
A|------------2-|-4-2---2-|---4---(4)-4---0-4-----------4~-|--42---4-------------|-4432~2~2~2~|
E|-0-2~--4-5~---|-----4---|--------------------------------|---------------------|------------|

  Chorus x2                                Brigde                 x4
  
G |----------------------------------------|-------------------|---------|
D |------------------------2--2--2--2-(x2)-|-------------------|---------|
A |---------------------2-4-44-44-44-------|-------------------|-4-2---2-|
E |-22222222-4-55555555--------------------|-22222222-55555555-|-----4---|

  Verse x2

  verse end (1)                    verse end (2)

G |-9-11-13------------------------|------------|
D |---------11-14-9-11-------------|------------|
A |--------------------9-11--------|-4432~2~2~2~|
E |-------------------------9-12-9-|------------|

  Bridge (x3)                                       4th time 

G|---------------x1x2x2x2x2x2x2x2x4x6x6x6x6x6x6x6-|---------------|
D|-x4x4x4x4x4x4x4---------------------------------|-x4x4x4x4x4x4x4|
A|------------------------------------------------|---------------|
E|------------------------------------------------|---------------|

x1x2x2x2x2x2x2x2x4x6x6x6x6x6x6x6x4x4x4x4x4x4x4x4-|
-------------------------------------------------|
-------------------------------------------------|
-------------------------------------------------|


  Chorus/Outro x3

G |---------------------------------------|
D |---------------------------------------|
A |-------------------2-44442444-24442444-|
E |-2222222-4-5555555---------------------|

This is my first tab, so I hope you like it. If there are questions or 
corrections please mail them to me ;)
            
Hard to play? Try these video lessons and learn fast. | Correct




comments powered by Disqus
↑ Back to top | Tablatures and chords are parodies/interpretations of the original songs. You may use it for private study, scholarship, research or language learning purposes only