» » »

Down In The Past Bass tabs (ver.1)

Artists:  A B C D E F G H I J K L M N O P Q R S T U V W X Y Z # 

Down In The Past Bass tabs (ver.1)

Mando Diao
Rating:
3/5 (3 votes)

Hard to play? Try these video lessons and learn fast.
                -------------------------------------------------------------------------------
-------------------------------------------------------------------------------

Tuning: Standard

I was wondering why there was just one bass tab for this great song and it seems like 
one was completly wrong.
It takes not very long to figure this out, but maybe I made mistakes,
so please comment and correct them.
Much fun and please rate ;)


Intro:
G|---------------------|
D|---------------------|
A|---------------------|x4
E|-7-5-7-5-7-5-7-5-7-5-|

G|---------------------------------------|
D|---------------------------------------|
A|------5-/7-7--7\5-5--5-/9-9------------|x4
E|-7-7------------------------10---------|

Verse:
G|---------------------------------------------------|
D|---------------------------------------------------|
A|-2-2--2--0h2--2-2--2-----5-/-7-7--7-7--/-2-2--2-2--|x2
E|---------------------------------------------------|

G|----------------------------------|
D|----------------------------------|
A|-5-5-5-5-5-5-5-5/9-9-9-9-9-9-9-9--|
E|----------------------------------|

G|---------------------|
D|---------------------|
A|---------------------|x2
E|-7-5-7-5-7-5-7-5-7-5-|

G|---------------------|
D|---------------------|
A|-5-5--5-5---7-7--7-7-|
E|---------------------|

G|-----------------------------------|
D|-----------------------------------|
A|-9-9-9-9-9-9-9-9-9-9-9-9-9-9-9-9-9-|
E|-----------------------------------|

Chorus:
G|---------------------------------------|
D|---------------------------------------|
A|------5-/7-7--7\5-5--5-/9-9------------|x2
E|-7-7------------------------10\--------|

G|---------------------------------------|
D|---------------------------------------|
A|-10-10-12-12-------9-9-----------------|
E|-------------10-10-----3-3-3-3-5-5-5-5-|

Chorus End:
G|---------------------------------------|
D|---------------------------------------|
A|------5-/7-7--7\5-5--5-/9-9------------|x2
E|-7-7------------------------10\--------|

Verse:
G|--------------------------------------------------|
D|--------------------------------------------------|
A|-2-2-0h2-2-0h2-2-0h2-2-5/7-7-5-7-7-5\2-2-0h2-2-0--|x2
E|--------------------------------------------------|

G|----------------------------------|
D|----------------------------------|
A|-5-5-5-5-5-5-5-5/9-9-9-9-9-9-9-9--|
E|----------------------------------|

G|---------------------|
D|---------------------|
A|---------------------|x2
E|-7-5-7-5-7-5-7-5-7-5-|

G|---------------------|
D|---------------------|
A|-5-5--5-5---7-7--7-7-|
E|---------------------|

G|-----------------------------------|
D|-----------------------------------|
A|-9-9-9-9-9-9-9-9-9-9-9-9-9-9-9-9-9-|
E|-----------------------------------|


Chorus:
G|---------------------------------------|
D|---------------------------------------|
A|------5-/7-7--7\5-5--5-/9-9------------|x2
E|-7-7------------------------10\--------|

G|---------------------------------------|
D|---------------------------------------|
A|-10-10-12-12-------9-9-----------------|
E|-------------10-10-----3-3-3-3-5-5-5-5-|

Chorus End/ Solo:
G|---------------------------------------|
D|---------------------------------------|
A|------5-/7-7--7\5-5--5-/9-9------------|x4
E|-7-7------------------------10\--------|


Bass Solo:
G|---------------------|----------------------|
D|---------------------|----------------------|
A|-------------------5-|---------------5h7p5--|x2
E|-7-5-7-5-7-5-7-5-7---|-7-5-7-5-7-5-7--------|

G|---------------------------------------|
D|---------------------------------------|
A|------5-/7-7--7\5-5--5-/9-9------------|x4
E|-7-7------------------------10\--------|

Chorus:
G|---------------------------------------|
D|---------------------------------------|
A|------5-/7-7--7\5-5--5-/9-9------------|x2
E|-7-7------------------------10\--------|

G|---------------------------------------|
D|---------------------------------------|
A|-10-10-12-12-------9-9-----------------|
E|-------------10-10-----3-3-3-3-5-5-5-5-|

Chrous End:
G|---------------------------------------|
D|---------------------------------------|
A|------5-/7-7--7\5-5--5-/9-9------------|x4
E|-7-7------------------------10\--------|

End:
G|----------------------|
D|----------------------|
A|----------------------|
E|-7-~------------------|


| /  slide up
| \  slide down
| h  hammer-on
| p  pull-off
| ~  vibrato
| +  harmonic
| x  Mute note

Questions?
===============================================================================
            
Hard to play? Try these video lessons and learn fast. | Correct




comments powered by Disqus
↑ Back to top | Tablatures and chords are parodies/interpretations of the original songs. You may use it for private study, scholarship, research or language learning purposes only