» » »

Dance With Somebody Tabs (ver.2)

Artists:  A B C D E F G H I J K L M N O P Q R S T U V W X Y Z # 

Dance With Somebody Tabs (ver.2)

Mando Diao
Rating:
4/5 (5 votes)

Hard to play? Try these video lessons and learn fast.
                This one is the new Single out of the

a quite new mando diao-style this song
mainly the bassguitar and the keyboard are playing
the guitar we only hear in chorus

enjoy it..!


intro: bass+keyboard

chords in verse(2x): actually there is no guitar in verse, but.here they are

                       1st   2nd
   Fis     A      Cis  time  time
E|--2------0-------4--|--4--|--2--|
B|--2------2-------5--|--5--|--4--|
G|--2------2-------6--|--6--|--4--|
D|--4------2-------6--|--6--|--4--|
A|--4------0-------4--|--4--|--2--|
E|--2-----------------|-----|-----|


chorus(2x)

    Fis                  A                  Cis
E|--9---9--9--9--9--9----9---9-9--9-9--9----4--7-4---7-4-7-4-7-4-7-|
B|--10--10-10-10-10-10---10--9-10-9-10-9----5--5-5---5-5-5-5-5-5-5-|
G|--11--9--11-9--11-9----9---9-9--9-9--9----6----6-----6---6---6---|
D|--11--11-11-11-11-11----------------------6--6-6---6-6-6-6-6-6-6-|
A|-----------------------------------------------------------------|
E|-----------------------------------------------------------------|


verse again two times like ahead

chorus(2x)

bridge (bass & keyboard)

chorus


hope you like that tab
            
Hard to play? Try these video lessons and learn fast. | Correct




comments powered by Disqus
↑ Back to top | Tablatures and chords are parodies/interpretations of the original songs. You may use it for private study, scholarship, research or language learning purposes only