» » »

Mando Diao, Dance With Somebody Bass tabs (ver.1)

Artists:  A B C D E F G H I J K L M N O P Q R S T U V W X Y Z # 

Dance With Somebody Bass tabs (ver.1)

Mando Diao Tabs
 Rating:
4/5 (5 votes)
Dance With Somebody lessons Tabs too difficult? Try these video lessons and learn fast
                
REAL FANS SUPPORT BANDS BY PURCHASING THEIR CD'S!!!

Tuning: Standard

. = Palm-Muted
~ = hold note
^ = vibrate
p = pull off
h = hammer on
/ = slide up
\ = slide down


Here's a vid of my brother covering the song (EASIER TO LEARN)




Intro:
              F#                     (G#)         A                      B
G---------------------------------------------------------------------------|
D---------------------------------------------------------------------------|
A----------------------------------------------------------------------2-2--|
E---0--2-2-2-2-2-2-2-2--2-2-2-2-2-2--4-4--5-5-5-5-5-5-5-5--5-5-5-5-5-5------|
      [       8      ]  [       8       ] [      8      ]  [     8        ]

    C#   (B)  (G#) (B)   C#   (B)  (G#) (B)
G---------------------------------------------|
D---------------------------------------------|
A---4-4--2-2-------2-2---4-4--2-2-------2-2---| x2
E-------------4-4------------------4-4--------|

Verse:
G----------------------------------------4--6---------6--4---------6-----6--|
D--4-----4----4--2-----------------7-----------6------------6--4------6-----|
A-----4-------------4--2--0----4/-----------------4-------------------------|
E---------------------------------------------------------------------------|

G---6--4----------------|
D----------6--5---------|
A-----------------------|
E-----------------------|

G------------------------------------------4--6-----6---6-4--------4-x16-|
D---4-----4----4--2------------------7-----------6-----------6-4---------|
A------4-------------4--2--0----4/---------------------------------------|
E------------------------------------------------------------------------|

Chorus:  (x2)
             F#                     (G#)         A                      B
G----------------------------------------------------------------------------|
D----------------------------------------------------------------------------|
A----------------------------------------------------------------------2-2---|
E-----2-2-2-2-2-2-2-2--2-2-2-2-2-2--4-4--5-5-5-5-5-5-5-5--5-5-5-5-5-5--------|
     [       8      ]  [       8       ] [      8      ]  [     8        ]

       C#        C#
G------------------------------|
D----------2----------2--------|
A---4-4-4------4-4-4-----------| x4
E------------------------------|

Interlude:  (same as intro)
             F#                     (G#)         A                      B
G----------------------------------------------------------------------------|
D----------------------------------------------------------------------------|
A----------------------------------------------------------------------2-2---|
E-----2-2-2-2-2-2-2-2--2-2-2-2-2-2--4-4--5-5-5-5-5-5-5-5--5-5-5-5-5-5--------|
     [       8      ]  [       8       ] [      8      ]  [     8        ]

    C#   (B)  (G#) (B)   C#   (B)  (G#) (B)
G---------------------------------------------|
D---------------------------------------------|
A---4-4--2-2-------2-2---4-4--2-2-------2-2---| x2
E-------------4-4------------------4-4--------|

Verse 2:
G----------------------------------------4--6-----6-------|
D--4-----4----4--2-----------------7-----------6----------|
A-----4-------------4--2--0----4/-------------------------|
E---------------------------------------------------------|


G---9-11-------9----------------------------|
D----------11-----9-11----------------------|
A------------------------9-11---------------|
E------------------------------9-11-9-------|

G----------------------------------------4--6------6------4-x16--------|
D--4-----4------4--2-----------------7-----------6---------------------|
A-----4------4---------4--2--0----4/-----------------------------------|
E----------------------------------------------------------------------|

Chorus:  (Same as before, twice)
             F#                     (G#)         A                      B
G----------------------------------------------------------------------------|
D----------------------------------------------------------------------------|
A----------------------------------------------------------------------2-2---|
E-----2-2-2-2-2-2-2-2--2-2-2-2-2-2--4-4--5-5-5-5-5-5-5-5--5-5-5-5-5-5--------|
     [       8      ]  [       8       ] [      8      ]  [     8        ]

       C#        C#
G------------------------------|
D----------2----------2--------|
A---4-4-4------4-4-4-----------| x4
E------------------------------|


Bridge, Break:
Version 1:
G---------------------------------------------------|
D---------------------------------------------------|
A-----------------------------------2-2---4-x32-----|
E--2-x8---2-x6---4-4---5-x8--5-x6-------------------|

Version 2:
G------------------------------------------------------------------------|
D----4---4---4---4----4---4---4----6------7---7---7---7----7---7---7-----|
A------------------------------------------------------------------------|
E--2---2---2---2----2---2---2----4------5---5---5---5----5---5---5-------|

G--------------------------|
D-----9--------------------|
A--------------------------|
E---7-----9-x32------------|


Interlude:   (i would use version 2 now!)
G------------------------------------------------------------------------|
D----4---4---4---4----4---4---4----6------7---7---7---7----7---7---7-----|
A------------------------------------------------------------------------|
E--2---2---2---2----2---2---2----4------5---5---5---5----5---5---5-------|

G--------------------------------|
D-----9------11-\----------------|
A-----------------x16------------|
E---7-----9-----/----------------|

G------------------------------------------------------------------------|
D----4---4---4---4----4---4---4----6------7---7---7---7----7---7---7-----|
A------------------------------------------------------------------------|
E--2---2---2---2----2---2---2----4------5---5---5---5----5---5---5-------|

G------------------------------------------|
D-----9------11-\--------------------------|
A-----------------x8-----------------------|
E---7-----9-----/---------7-x16------------|


No just repeat the CHORUS 3 times!!



Thats it! I hope this helped, please rate, comment and correct me!

Cheers...
            
Submit corrections

comments powered by Disqus
↑ Back to top | Mando Diao Bass for Dance With Somebody. Lyrics for acoustic guitar and electric guitar. Tablatures and chords are parodies/interpretations of the original songs. You may use it for private study, scholarship, research or language learning purposes only