>
 >
Down In The Past

Down In The Past Guitar Tabs

Mando Diao - Down In The Past chords, tabs, tablatures, lyrics

Guitar lessons | Add/correct | Request | Top 50 tabs Artists:  A B C D E F G H I J K L M N O P Q R S T U V W X Y Z 0-9

Down In The Past Guitar Tabs – Mando Diao

CD, Sheet music, Poster

Do you like Down In The Past? Share with your friends now
Bass TabsBass Tabs v2ChordsChords v2Chords v3TabsTabs v2Tabs v3Ukulele
----------------------------------------------------------------------------
                             Down in the past- Mando Diao
----------------------------------------------------------------------------

Tuning: Standard

|Intro part 1 (2.Guitar): 1x 

e|---------------------|-----------------------------|
B|---------------------|-----------------------------|
G|---------------------|-------------------7---------|
D|-9-7-9-7-9-7-9-7-9-7-|-9-7-9-7-9-7-9-7-9-----------|
A|---------------------|-----------------------------|
E|---------------------|-----------------------------|

|Intro part 2: 1x

e|---------------------|------------------------------|
B|---------------------|------------------------------| 
G|---------------------|---------------7-9b-7---------|   
D|-9-7-9-7-9-7-9-7-9-7-|-9-7-9-7-9-7-9----------------|   
A|---------------------|------------------------------| 
E|---------------------|------------------------------|

|Intro part 3: 3x
e|---------------------|------------------------------|
B|---------------------|------------------------------|
G|-------------------7-|---------------7-9b-7---------|
D|-9-7-9-7-9-7-9-7-9---|-9-7-9-7-9-7-9----------------|
A|---------------------|------------------------------|
E|---------------------|------------------------------|

|Intro part 4: 1x
e|---------------------|-------------------------------|
B|---------------------|-------------------------------|
G|-------------------7-|---------------7-9b-7----------|
D|-9-7-9-7-9-7-9-7-9---|-9-7-9-7-9-7-9---------9---\0--|
A|---------------------|-------------------------------|
E|---------------------|-------------------------------|

|Intro for 1.Guitar: During the Intro: Part3+4) 
[    3x                                   ]  At Fourth time 
   B   B      Em   Em    D   D     F#              B
e|---------------------|-2---2------------|  |-------------|
B|---------------------|-3---3------------|  |-------------|
G|-4---4---------------|-2---2------------|  |-----4-------|
D|-4---4------2---2----|-0---0-----4---4--|  |-----4-------|
A|-2---2------2---2----|-----------4---4--|  |-----2-------|
E|------------0---0----|-----------2---2--|  |-------------|
                                                 Well,...


|Verse: 2x

       B            E        E            B 
e|----------------------------------------------------------|
B|----------------------------------------------------------|
G|-----4------------1--------1------------4-----------------|
D|-----4------------2--------2------------4-----------------|
A|-----2------------2--------2------------2-----------------|
E|------------------0--------0------------------------------|
 Well,I don`t... motorbaby,  see you through.

|Bridge: 2.Guitar:
   D           F#m        B           
e|-2------------------------------|
B|-3------------------------------|
G|-2----------------------4-------|
D|-0-------------4--------4-------|
A|---------------4--------2-------|
E|---------------2----------------|
But since...there,where...be...

2.Guitar: Intro part 1

1.Guitar:
    D         E          F#m
e|--2--------------------------------------------|
B|--3--------------------------------------------|
G|--2---------1----------------------------------|
D|--0---------2-----------4----------------------|
A|------------2-----------4-(16x)----------------|
E|------------0-----------2----------------------|
I'm get...  dressing...  weather...

||Chorus: 
|Guitar 1:
 Part1:2x
e|-----------------2-------------------|
B|-----------------3-------------------|
G|-4---------------2-------------------|
D|-4-------2-------0---------4---------|
A|-2-------2-----------------4---------|
E|---------0-----------------2---------|
 Down... past... mother... last

 Part2 1x:  
   G      A        D        F#     G     A        B
e|-3---------------2------------|--3----------------------------|
B|-0------2--------3------------|--0-----2----------------------|
G|-0------2--------2------------|--0-----2--------4-------------|
D|-0------2--------0---------4--|--0-----2--------4-------------|
A|-2------0------------------4--|--2-----0--------2-------------|
E|-3-------------------------2--|--3----------------------------|
 Down... past... mother... last   she...sure...remember 

|2.Guitar: During the Chorus:

e|-7---------------------|--------9--9--10-----9-----------------------|
B|--7--8--8-7---------7--|-8---8---10-----10----9----8--8--10-10--12~ -|
G|--7---7----7-----9---|---7--------------11---10----7-----9---------|
D|--------------9-8------|---------------------------------------------|
A|---------------------|---------------------------------------------|
E|-----------------------|---------------------------------------------|

|Intro part 3: 2x

|Verse:
|Bridge:
|Chorus:
|Solo: 2.Guitar:

e|-------------------------------------|-----------------------------------|
B|----------7----------------7-7-------|----------------------------7------|
G|-----7-9------7-9-7---7-9-----9-7--|-----------7--7--7-9-7-9-7-9--9-7--|
D|--9-9--------9-------9-------------7-|-9-7-9-7-9---9--9----------------7-|
A|-----------------------------------|-----------------------------------|
E|-------------------------------------|-----------------------------------|

e|----------------------------------7-10-7------|
B|-----------------------------7-10-------------|
G|-----------7--7--7-9-7-9-7-9------------------|
D|-9-7-9-7-9---9--9-----------------------------|
A|----------------------------------------------|
E|----------------------------------------------|

|Bass Solo
|2.Guitar: Almost the same as during the chorus
|Chorus:

|End:|1.Guitar: Chorussriffs 
|2.Guitar: Introriff: part 3: 4x

| b  bend
| ~  vibrato
===========================================================================





Comments


Popular Mando Diao tabs & chords
Sheepdog 2 Bass Tabs
Down In The Past Chords
Gold 2 Chords
Gold 5 Chords
Nothing Without You Chords
India Love Intro Tabs
Gloria Ukulele
Mean Street Ukulele
Never Seen The Light Of Day Ukulele
This Is The Modern Ukulele


Song lyrics



↑ Back to top | Tablatures and chords are parodies/interpretations of the original songs. You may use it for private study, scholarship, research or language learning purposes only
© 2014 AZChords.com Contact us | Privacy policy | DMCA | Add/correct tabs | Request tabs | Top 50 tabs