» » »

Madina Lake, House Of Card Tabs (ver.3)

Artists:  A B C D E F G H I J K L M N O P Q R S T U V W X Y Z # 

House Of Card Tabs (ver.3)

Madina Lake Tabs
 Rating:
4.3/5 (6 votes)
House Of Card lessons Tabs too difficult? Try these video lessons and learn fast
1
                House of cards - Madina Lake 


I don't know where drop C comes into it like the other tabs:/


Intro/Verse (Tapping):

   T T  T T   T T  T  T T T  T T  T T
E|-------------------------------------|
B|-3-15-3-10--3-10-3-11-3-11-3-11-3-10-|
G|-------------------------------------|
D|-------------------------------------| x10
A|-------------------------------------|
D|-------------------------------------|


Chorus:

E|---------------------------------------------------------|
B|---------------------------------------------------------|
G|---------------------------11-11-11/-9-9--9/--7-7--7-7---|
D|-8--8-8--8-8--5--5-5--5-5--X--X--X---X-X--X---X-X--X-X---|
A|-8--8-8--8-8--5--5-5--5-5--9--9--9/--7-7--7/--5-5--5-5---|
D|-8--8-8--8-8--5--5-5--5-5--0--0--0---0-0--0---0-0--0-0---|


E|---------------------------------------------------------|
B|---------------------------------------------------------|
G|---------------------------11-11-11/-9-9--9/--7-7--7-7---|
D|-8--8-8--8-8--5--5-5--5-5--X--X--X---X-X--X---X-X--X-X---|
A|-8--8-8--8-8--5--5-5--5-5--9--9--9/--7-7--7/--5-5--5-5---|
D|-8--8-8--8-8--5--5-5--5-5--0--0--0---0-0--0---0-0--0-0---|



Intro/Verse (Tapping):

   T T  T T   T T  T  T T T  T T  T T
E|-------------------------------------|
B|-3-15-3-10--3-10-3-11-3-11-3-11-3-10-|
G|-------------------------------------|
D|-------------------------------------| x6
A|-------------------------------------|
D|-------------------------------------|


Chorus:

E|---------------------------------------------------------|
B|---------------------------------------------------------|
G|---------------------------11-11-11/-9-9--9/--7-7--7-7---|
D|-8--8-8--8-8--5--5-5--5-5--X--X--X---X-X--X---X-X--X-X---|
A|-8--8-8--8-8--5--5-5--5-5--9--9--9/--7-7--7/--5-5--5-5---|
D|-8--8-8--8-8--5--5-5--5-5--0--0--0---0-0--0---0-0--0-0---|


E|---------------------------------------------------------|
B|---------------------------------------------------------|
G|---------------------------11-11-11/-9-9--9/--7-7--7-7---|
D|-8--8-8--8-8--5--5-5--5-5--X--X--X---X-X--X---X-X--X-X---|
A|-8--8-8--8-8--5--5-5--5-5--9--9--9/--7-7--7/--5-5--5-5---|
D|-8--8-8--8-8--5--5-5--5-5--0--0--0---0-0--0---0-0--0-0---|


Repeat until bridge
On last repeat of chours before bridge play 

E|---------------------------------------------------------|
B|---------------------------------------------------------|
G|---------------------------------------------------------|
D|-8--8-8--8-8--5--5-5--5-5--0--0--0---0-0--0---0-0--0-0---| x1
A|-8--8-8--8-8--5--5-5--5-5--0--0--0---0-0--0---0-0--0-0---|
D|-8--8-8--8-8--5--5-5--5-5--0--0--0---0-0--0---0-0--0-0---|


Bridge:

E|-------------------------------------------------|
B|-------------------------------------------------|
G|-------------------------------------------------|
D|-8-8-8-8-8-8-8-8-10-10-10-10-10-10-10-10---------|
A|-8-8-8-8-8-8-8-8-10-10-10-10-10-10-10-10---------|
D|-8-8-8-8-8-8-8-8-10-10-10-10-10-10-10-10---------|

E|-------------------------------------|
B|-------------------------------------|
G|-------------------------------------|
D|-5-5-5-5-5-5-5-5-5-5-5-5-5-5-5-3-5-3-|
A|-5-5-5-5-5-5-5-5-5-5-5-5-5-5-5-3-5-3-|
D|-5-5-5-5-5-5-5-5-5-5-5-5-5-5-5-3-5-3-|

E|-------------------------------------------------|
B|-------------------------------------------------|
G|-------------------------------------------------|
D|-8-8-8-8-8-8-8-8-10-10-10-10-10-10-10-10---------|
A|-8-8-8-8-8-8-8-8-10-10-10-10-10-10-10-10---------|
D|-8-8-8-8-8-8-8-8-10-10-10-10-10-10-10-10---------|

E|-------------------------------------|
B|-------------------------------------|
G|-------------------------------------|
D|-5-5-5-5-5-5-5-5-5-5-5-5-5-5-5-3-5-3-|
A|-5-5-5-5-5-5-5-5-5-5-5-5-5-5-5-3-5-3-|
D|-5-5-5-5-5-5-5-5-5-5-5-5-5-5-5-3-5-3-|

E|-------------------------------------------------|
B|-------------------------------------------------|
G|-------------------------------------------------|
D|-8-8-8-8-8-8-8-8-10-10-10-10-10-10-10-10---------|
A|-8-8-8-8-8-8-8-8-10-10-10-10-10-10-10-10---------|
D|-8-8-8-8-8-8-8-8-10-10-10-10-10-10-10-10---------|

E|-------------------------------------|
B|-------------------------------------|
G|-------------------------------------|
D|-5-5-5-5-5-5-5-5-5-5-5-5-5-5-5-3-5-3-|
A|-5-5-5-5-5-5-5-5-5-5-5-5-5-5-5-3-5-3-|
D|-5-5-5-5-5-5-5-5-5-5-5-5-5-5-5-3-5-3-|

E|-------------------------------------|
B|-------------------------------------|
G|-------------------------------------|
D|-5-5-5-5-5-5-5-5-5-5-5-5-5-5-5-5-5-5-|
A|-5-5-5-5-5-5-5-5-5-5-5-5-5-5-5-5-5-5-|
D|-5-5-5-5-5-5-5-5-5-5-5-5-5-5-5-5-5-5-|

E|----------------------------------------|
B|----------------------------------------|
G|----------------------------------------|
D|-2-2-2-2-2-2-2-2-2-2-2-2-2-2-2-2-2-2-0~-|
A|-2-2-2-2-2-2-2-2-2-2-2-2-2-2-2-2-2-2-0~-|
D|-2-2-2-2-2-2-2-2-2-2-2-2-2-2-2-2-2-2-0~-|

Intro/Verse (Tapping):
   T T  T T   T T  T  T T T  T T  T T
E|-------------------------------------|
B|-3-15-3-10--3-10-3-11-3-11-3-11-3-10-|
G|-------------------------------------|
D|-------------------------------------| x8
A|-------------------------------------|
D|-------------------------------------|


Outro:

E|---------------------------------------------------------|
B|---------------------------------------------------------|
G|---------------------------11-11-11/-9-9--9/--7-7--7-7---|
D|-8--8-8--8-8--5--5-5--5-5--X--X--X---X-X--X---X-X--X-X---| x3
A|-8--8-8--8-8--5--5-5--5-5--9--9--9/--7-7--7/--5-5--5-5---|
D|-8--8-8--8-8--5--5-5--5-5--0--0--0---0-0--0---0-0--0-0---|


E|---------------------------------------------------------|
B|---------------------------------------------------------|
G|---------------------------------------------------------|
D|-8--8-8--8-8--5--5-5--5-5--0--0--0---0-0--0---0-0--0-0---| x1
A|-8--8-8--8-8--5--5-5--5-5--0--0--0---0-0--0---0-0--0-0---|
D|-8--8-8--8-8--5--5-5--5-5--0--0--0---0-0--0---0-0--0-0---|


E|---------------------------------------------------------|
B|---------------------------------------------------------|
G|---------------------------------------------------------|
D|-8--8-8--8-8--5--5-5--5-5--0--0--0---0-0--0---0-3--5-3---| x2
A|-8--8-8--8-8--5--5-5--5-5--0--0--0---0-0--0---0-3--5-3---|
D|-8--8-8--8-8--5--5-5--5-5--0--0--0---0-0--0---0-3--5-3---|


E|----|
B|----|
G|----|
D|-0~-| Let ring
A|-0~-|
D|-0~-|
            
Submit corrections

comments powered by Disqus
↑ Back to top | Madina Lake Tabs for House Of Card. Lyrics for acoustic guitar and electric guitar. 1 Tablatures and chords are parodies/interpretations of the original songs. You may use it for private study, scholarship, research or language learning purposes only