» » »

House Of Card Bass tabs (ver.2)

Artists:  A B C D E F G H I J K L M N O P Q R S T U V W X Y Z # 

House Of Card Bass tabs (ver.2)

Madina Lake
Rating:
4/5 (3 votes)

Hard to play? Try these video lessons and learn fast.
                Verse

G|---------------------------------
D|555555558888888833333333222222222
A|---------------------------------|
D|---------------------------------|

G|-----------------------------------|
D|-----------------------------------|
A|-----------------------------------|
D|///55555555888888883333333322222222

G|------------------------------|
D|--7------7------7------7------|
A|5------4------5------5--------|
D|------------------------------|


Chrous

G|--------------------------------------|
D|--------------------------------------|
A|--------------------------------------|
D|8888888855/8/555550000000h30000000h3/5

G|--------------------------------------|
D|--------------------------------------|
A|--------------------------------------|
D|8888888855/8/555550000000h30000000h3/5

Verse 2


G|---------------------------------
D|555555558888888833333333222222222
A|---------------------------------|
D|---------------------------------|

G|-----------------------------------|
D|-----------------------------------|
A|-----------------------------------|
D|///55555555888888883333333322222222

G|------------------------------|
D|--7------7------7------7------|
A|5------4------5------5--------|
D|------------------------------|


Chrous

G|--------------------------------------|
D|--------------------------------------|
A|--------------------------------------|
D|8888888855/8/555550000000h30000000h3/5

G|--------------------------------------|
D|--------------------------------------|
A|--------------------------------------|
D|8888888855/8/555550000000h30000000h3/5


Break

G|-----------------------------------------|
D|-----------------------------------------|
A|-----------------------------------------|
D|88888888101010101010101055555555555555533

G|-----------------------------------------|
D|-----------------------------------------|
A|-----------------------------------------|
D|88888888101010101010101055555555555555533

G|-----------------------------------------|
D|-----------------------------------------|
A|-----------------------------------------|
D|88888888101010101010101055555555555555555

G|-----------------------------------------|
D|-----------------------------------------|
A|-----------------------------------------|
D|3333333333333333222222222222222200000000~

G|------5555555-------5555555-------5555555-------555555-|
D|-------------------------------------------------------|
A|5-5-5---------5-5-5---------5-5-5---------5-5-5--------|
D|-------------------------------------------------------|


Chrous

G|--------------------------------------|
D|--------------------------------------|
A|--------------------------------------|
D|8888888855/8/555550000000h30000000h3/5

G|--------------------------------------|
D|--------------------------------------|
A|--------------------------------------|
D|8888888855/8/555550000000h30000000h3/5

G|--------------------------------------|
D|--------------------------------------|
A|--------------------------------------|
D|8888888855/8/555550000000h30000000h3/5

G|--------------------------------------|
D|--------------------------------------|
A|--------------------------------------|
D|8888888855/8/5555500000000000000000000
            
Hard to play? Try these video lessons and learn fast. | Correct




comments powered by Disqus
↑ Back to top | Tablatures and chords are parodies/interpretations of the original songs. You may use it for private study, scholarship, research or language learning purposes only