» » »

Madina Lake, House Of Card Tabs (ver.2)

Artists:  A B C D E F G H I J K L M N O P Q R S T U V W X Y Z # 

House Of Card Tabs (ver.2)

Madina Lake Tabs
 Rating:
4.5/5 (8 votes)
House Of Card lessons Tabs too difficult? Try these video lessons and learn fast
1
                Madina Lake - House Of Cards ('The Disappearance Of Adalia' EP Version)



This is a new song from the band Madina Lake (Formerly The Blank Theory and Reforma.)


Update: Fixed the ending chords, thanks H_Zula.


NOTES: The lyrics appear above each measure to signify where in the song it is, not below.
The only time I tabbed a second guitar is when the riffs are different. So if two 
play the same riff at one time, I can't tell. :)


Tuning: Drop C (C, G, C, F, A, D) Low to high


Legend:

~ = Let Ring

h = Hammer-on

p = Pull-off

. = Palm Mute

/ = Slide Up

\ = Slide Down


Intro/Verse (Tapping):

D|-------------------------------------|
A|-5-17-5-12--5-12-5-13-5-13-5-13-5-12-|
F|-------------------------------------|
C|-------------------------------------| x10
G|-------------------------------------|
C|-------------------------------------|


Chorus:

D|---------------------------------------------------------|
A|---------------------------------------------------------|
F|---------------------------------------------------------|
C|-10--10-10--10-10--7--7-7--7-7--2--2-2--2-2--2--2-2--2-2-|
G|-10--10-10--10-10--7--7-7--7-7--2--2-2--2-2--2--2-2--2-2-|
C|-10--10-10--10-10--7--7-7--7-7--2--2-2--2-2--2--2-2--2-2-|


D|---------------------------------------------------------|
A|---------------------------------------------------------|
F|---------------------------------------------------------|
C|-10--10-10--10-10--7--7-7--7-7--2--2-2--7-9--9--9-9--9-9-|
G|-10--10-10--10-10--7--7-7--7-7--2--2-2--7-9--9--9-9--9-9-|
C|-10--10-10--10-10--7--7-7--7-7--2--2-2--7-9--9--9-9--9-9-|


Intro/Verse (Tapping):

D|-------------------------------------|
A|-5-17-5-12--5-12-5-13-5-13-5-13-5-12-|
F|-------------------------------------|
C|-------------------------------------| x6
G|-------------------------------------|
C|-------------------------------------|


Chorus:

D|---------------------------------------------------------|
A|---------------------------------------------------------|
F|---------------------------------------------------------|
C|-10--10-10--10-10--7--7-7--7-7--2--2-2--2-2--2--2-2--2-2-|
G|-10--10-10--10-10--7--7-7--7-7--2--2-2--2-2--2--2-2--2-2-|
C|-10--10-10--10-10--7--7-7--7-7--2--2-2--2-2--2--2-2--2-2-|


D|---------------------------------------------------------|
A|---------------------------------------------------------|
F|---------------------------------------------------------|
C|-10--10-10--10-10--7--7-7--7-7--2--2-2--7-9--9--9-9--9-9-|
G|-10--10-10--10-10--7--7-7--7-7--2--2-2--7-9--9--9-9--9-9-|
C|-10--10-10--10-10--7--7-7--7-7--2--2-2--7-9--9--9-9--9-9-|

Repeat whole chorus.


Bridge:

D|-------------------------------------------------|
A|-------------------------------------------------|
F|-------------------------------------------------|
C|-10-10-10-10-10-10-10-10-12-12-12-12-12-12-12-12-|
G|-10-10-10-10-10-10-10-10-12-12-12-12-12-12-12-12-|
C|-10-10-10-10-10-10-10-10-12-12-12-12-12-12-12-12-|

D|-------------------------------------|
A|-------------------------------------|
F|-------------------------------------|
C|-7-7-7-7-7-7-7-7-7-7-7-7-7-7-7-5-7-5-|
G|-7-7-7-7-7-7-7-7-7-7-7-7-7-7-7-5-7-5-|
C|-7-7-7-7-7-7-7-7-7-7-7-7-7-7-7-5-7-5-|

D|-------------------------------------------------|
A|-------------------------------------------------|
F|-------------------------------------------------|
C|-10-10-10-10-10-10-10-10-12-12-12-12-12-12-12-12-|
G|-10-10-10-10-10-10-10-10-12-12-12-12-12-12-12-12-|
C|-10-10-10-10-10-10-10-10-12-12-12-12-12-12-12-12-|

D|-------------------------------------|
A|-------------------------------------|
F|-------------------------------------|
C|-7-7-7-7-7-7-7-7-7-7-7-7-7-7-7-5-7-5-|
G|-7-7-7-7-7-7-7-7-7-7-7-7-7-7-7-5-7-5-|
C|-7-7-7-7-7-7-7-7-7-7-7-7-7-7-7-5-7-5-|

D|-------------------------------------------------|
A|-------------------------------------------------|
F|-------------------------------------------------|
C|-10-10-10-10-10-10-10-10-12-12-12-12-12-12-12-12-|
G|-10-10-10-10-10-10-10-10-12-12-12-12-12-12-12-12-|
C|-10-10-10-10-10-10-10-10-12-12-12-12-12-12-12-12-|

D|-------------------------------------|
A|-------------------------------------|
F|-------------------------------------|
C|-7-7-7-7-7-7-7-7-7-7-7-7-7-7-7-5-7-5-|
G|-7-7-7-7-7-7-7-7-7-7-7-7-7-7-7-5-7-5-|
C|-7-7-7-7-7-7-7-7-7-7-7-7-7-7-7-5-7-5-|

D|-------------------------------------|
A|-------------------------------------|
F|-------------------------------------|
C|-5-5-5-5-5-5-5-5-5-5-5-5-5-5-5-5-5-5-|
G|-5-5-5-5-5-5-5-5-5-5-5-5-5-5-5-5-5-5-|
C|-5-5-5-5-5-5-5-5-5-5-5-5-5-5-5-5-5-5-|

D|----------------------------------------|
A|----------------------------------------|
F|----------------------------------------|
C|-4-4-4-4-4-4-4-4-4-4-4-4-4-4-4-4-4-4-2~-|
G|-4-4-4-4-4-4-4-4-4-4-4-4-4-4-4-4-4-4-2~-|
C|-4-4-4-4-4-4-4-4-4-4-4-4-4-4-4-4-4-4-2~-|

Intro/Verse (Tapping):

D|-------------------------------------|
A|-5-17-5-12--5-12-5-13-5-13-5-13-5-12-|
F|-------------------------------------|
C|-------------------------------------| x8
G|-------------------------------------|
C|-------------------------------------|


Chorus:

D|---------------------------------------------------------|
A|---------------------------------------------------------|
F|---------------------------------------------------------|
C|-10--10-10--10-10--7--7-7--7-7--2--2-2--2-2--2--2-2--2-2-|
G|-10--10-10--10-10--7--7-7--7-7--2--2-2--2-2--2--2-2--2-2-|
C|-10--10-10--10-10--7--7-7--7-7--2--2-2--2-2--2--2-2--2-2-|


D|---------------------------------------------------------|
A|---------------------------------------------------------|
F|---------------------------------------------------------|
C|-10--10-10--10-10--7--7-7--7-7--2--2-2--7-9--9--9-9--9-9-|
G|-10--10-10--10-10--7--7-7--7-7--2--2-2--7-9--9--9-9--9-9-|
C|-10--10-10--10-10--7--7-7--7-7--2--2-2--7-9--9--9-9--9-9-|

Repeat whole chorus 3 more times.

D|----|
A|----|
F|----|
C|-2~-| Let ring out.
G|-2~-|
C|-2~-|


And that's the whole shabang, I might update it soon though.
            
Submit corrections

comments powered by Disqus
↑ Back to top | Madina Lake Tabs for House Of Card. Lyrics for acoustic guitar and electric guitar. 1 Tablatures and chords are parodies/interpretations of the original songs. You may use it for private study, scholarship, research or language learning purposes only