>
 >
House Of Card

House Of Card Guitar Tabs

Madina Lake - House Of Card chords, tabs, tablatures, lyrics

Guitar lessons | Add/correct | Request | Top 50 tabs Artists:  A B C D E F G H I J K L M N O P Q R S T U V W X Y Z 0-9

House Of Card Guitar Tabs – Madina Lake

CD, Sheet music, Poster

Do you like House Of Card? Share with your friends now
Tabs
~ = Let Ring

h = Hammer-on

p = Pull-off

. = Palm Mute

/ = Slide Up

\ = Slide Down


INTRO:


D|-0-12-0-9--0-9-0-10-0-10-0-10-0-9----|
A|-------------------------------------|
F|-------------------------------------|
C|-------------------------------------| x10
G|-------------------------------------|
C|-------------------------------------|




Chorus:

D|---------------------------------------------------------|
A|---------------------------------------------------------|
F|---------------------------------------------------------|
C|-10--10-10--10-10--7--7-7--7-7--2--2-2--2-2--2--2-2--2-2-|
G|-10--10-10--10-10--7--7-7--7-7--2--2-2--2-2--2--2-2--2-2-|
C|-10--10-10--10-10--7--7-7--7-7--2--2-2--2-2--2--2-2--2-2-|


D|---------------------------------------------------------|
A|---------------------------------------------------------|
F|---------------------------------------------------------|
C|-10--10-10--10-10--7--7-7--7-7--2--2-2--7-9--9--9-9--9-9-|
G|-10--10-10--10-10--7--7-7--7-7--2--2-2--7-9--9--9-9--9-9-|
C|-10--10-10--10-10--7--7-7--7-7--2--2-2--7-9--9--9-9--9-9-|


Intro/Verse (Tapping):

D|-------------------------------------|
A|-5-17-5-12--5-12-5-13-5-13-5-13-5-12-|
F|-------------------------------------|
C|-------------------------------------| x6
G|-------------------------------------|
C|-------------------------------------|


Chorus:

D|---------------------------------------------------------|
A|---------------------------------------------------------|
F|---------------------------------------------------------|
C|-10--10-10--10-10--7--7-7--7-7--2--2-2--2-2--2--2-2--2-2-|
G|-10--10-10--10-10--7--7-7--7-7--2--2-2--2-2--2--2-2--2-2-|
C|-10--10-10--10-10--7--7-7--7-7--2--2-2--2-2--2--2-2--2-2-|


D|---------------------------------------------------------|
A|---------------------------------------------------------|
F|---------------------------------------------------------|
C|-10--10-10--10-10--7--7-7--7-7--2--2-2--7-9--9--9-9--9-9-|
G|-10--10-10--10-10--7--7-7--7-7--2--2-2--7-9--9--9-9--9-9-|
C|-10--10-10--10-10--7--7-7--7-7--2--2-2--7-9--9--9-9--9-9-|

Repeat whole chorus.


Bridge:

D|-------------------------------------------------|
A|-------------------------------------------------|
F|-------------------------------------------------|
C|-10-10-10-10-10-10-10-10-12-12-12-12-12-12-12-12-|
G|-10-10-10-10-10-10-10-10-12-12-12-12-12-12-12-12-|
C|-10-10-10-10-10-10-10-10-12-12-12-12-12-12-12-12-|

D|-------------------------------------|
A|-------------------------------------|
F|-------------------------------------|
C|-7-7-7-7-7-7-7-7-7-7-7-7-7-7-7-5-7-5-|
G|-7-7-7-7-7-7-7-7-7-7-7-7-7-7-7-5-7-5-|
C|-7-7-7-7-7-7-7-7-7-7-7-7-7-7-7-5-7-5-|

D|-------------------------------------------------|
A|-------------------------------------------------|
F|-------------------------------------------------|
C|-10-10-10-10-10-10-10-10-12-12-12-12-12-12-12-12-|
G|-10-10-10-10-10-10-10-10-12-12-12-12-12-12-12-12-|
C|-10-10-10-10-10-10-10-10-12-12-12-12-12-12-12-12-|

D|-------------------------------------|
A|-------------------------------------|
F|-------------------------------------|
C|-7-7-7-7-7-7-7-7-7-7-7-7-7-7-7-5-7-5-|
G|-7-7-7-7-7-7-7-7-7-7-7-7-7-7-7-5-7-5-|
C|-7-7-7-7-7-7-7-7-7-7-7-7-7-7-7-5-7-5-|

D|-------------------------------------------------|
A|-------------------------------------------------|
F|-------------------------------------------------|
C|-10-10-10-10-10-10-10-10-12-12-12-12-12-12-12-12-|
G|-10-10-10-10-10-10-10-10-12-12-12-12-12-12-12-12-|
C|-10-10-10-10-10-10-10-10-12-12-12-12-12-12-12-12-|

D|-------------------------------------|
A|-------------------------------------|
F|-------------------------------------|
C|-7-7-7-7-7-7-7-7-7-7-7-7-7-7-7-5-7-5-|
G|-7-7-7-7-7-7-7-7-7-7-7-7-7-7-7-5-7-5-|
C|-7-7-7-7-7-7-7-7-7-7-7-7-7-7-7-5-7-5-|

D|-------------------------------------|
A|-------------------------------------|
F|-------------------------------------|
C|-5-5-5-5-5-5-5-5-5-5-5-5-5-5-5-5-5-5-|
G|-5-5-5-5-5-5-5-5-5-5-5-5-5-5-5-5-5-5-|
C|-5-5-5-5-5-5-5-5-5-5-5-5-5-5-5-5-5-5-|

D|----------------------------------------|
A|----------------------------------------|
F|----------------------------------------|
C|-4-4-4-4-4-4-4-4-4-4-4-4-4-4-4-4-4-4-2~-|
G|-4-4-4-4-4-4-4-4-4-4-4-4-4-4-4-4-4-4-2~-|
C|-4-4-4-4-4-4-4-4-4-4-4-4-4-4-4-4-4-4-2~-|

Intro/Verse (Tapping):

D|-------------------------------------|
A|-5-17-5-12--5-12-5-13-5-13-5-13-5-12-|
F|-------------------------------------|
C|-------------------------------------| x8
G|-------------------------------------|
C|-------------------------------------|


Chorus:

D|---------------------------------------------------------|
A|---------------------------------------------------------|
F|---------------------------------------------------------|
C|-10--10-10--10-10--7--7-7--7-7--2--2-2--2-2--2--2-2--2-2-|
G|-10--10-10--10-10--7--7-7--7-7--2--2-2--2-2--2--2-2--2-2-|
C|-10--10-10--10-10--7--7-7--7-7--2--2-2--2-2--2--2-2--2-2-|


D|---------------------------------------------------------|
A|---------------------------------------------------------|
F|---------------------------------------------------------|
C|-10--10-10--10-10--7--7-7--7-7--2--2-2--7-9--9--9-9--9-9-|
G|-10--10-10--10-10--7--7-7--7-7--2--2-2--7-9--9--9-9--9-9-|
C|-10--10-10--10-10--7--7-7--7-7--2--2-2--7-9--9--9-9--9-9-|

Repeat whole chorus 3 more times.

D|----|
A|----|
F|----|
C|-2~-| Let ring out.
G|-2~-|
C|-2~-|





Comments


Popular Madina Lake tabs & chords
Never Take Us Alive Bass Tabs
Angel Chords
Friends And Lovers Chords
In Another Life Chords
Never Take Us Alive Chords
Pandora Chords
Here I Stand 2 Tabs
Hey Superstar Ukulele
Imagineer Ukulele
In Another Life Ukulele


Song lyrics



↑ Back to top | Tablatures and chords are parodies/interpretations of the original songs. You may use it for private study, scholarship, research or language learning purposes only
© 2014 AZChords.com Contact us | Privacy policy | DMCA | Add/correct tabs | Request tabs | Top 50 tabs