» » »

House Of Card Bass tabs (ver.1)

Artists:  A B C D E F G H I J K L M N O P Q R S T U V W X Y Z # 

House Of Card Bass tabs (ver.1)

Madina Lake
Rating:
4/5 (1 vote)

Hard to play? Try these video lessons and learn fast.
                Band: Madina Lake
Track: 05

Drop C Tuning

Verse-come in at 0:06
F|----------------------------------------------|
C|-77777777-1010101010101010-55555555-44444444--|
G|----------------------------------------------| x2
C|----------------------------------------------|

F|----------------------------------------------|
C|----------------------------------------------|
G|----------------------------------------------| x2
C|-77777777-1010101010101010-55555555-44444444--|

Pre Chorus
F|------------------|
C|---9---9---9---9--|
G|-7---6------------|
C|---------7---9----|

Chorus
F|--------------------------------------|
C|--------------------------------------|
G|-33333333-00000000--------------------| x4
C|-------------------22222222-22222222--|

Verse 2
F|----------------------------------------------|
C|----------------------------------------------|
G|----------------------------------------------| x3
C|-77777777-1010101010101010-55555555-44444444--|

Pause 1:21-1:33

Chorus 2
F|--------------------------------------|
C|--------------------------------------|
G|-33333333-00000000--------------------| x4
C|-------------------22222222-22222222--|

Bridge 1
F|--------------------------------------|
C|--------------------------------------|
G|-33333333-55555555-00000000-00000000--| x3
C|--------------------------------------|

F|--------------------------------------|
C|--------------------------------------|
G|--------------------------------------|
C|-55555555-55555555-44444444-44444444--|

F|--------------------------------------|
C|--------------------------------------|
G|-77777777-77777777-77777777-77777777--|
C|--------------------------------------|

Bridge 2
F|-----
C|-----
G|-7~-- x4
C|-----

F|-------99999999--|
C|-----------------|
G|-7-7-7-----------| x4
C|-----------------|

Chorus 3
F|--------------------------------------|
C|--------------------------------------|
G|-33333333-00000000--------------------| x6
C|-------------------22222222-22222222--|
            
Hard to play? Try these video lessons and learn fast. | Correct




comments powered by Disqus
↑ Back to top | Tablatures and chords are parodies/interpretations of the original songs. You may use it for private study, scholarship, research or language learning purposes only