>
 >
Heavenhell 1

Heavenhell 1 Guitar Tabs

Madball - Heavenhell 1 chords, tabs, tablatures, lyrics

Guitar lessons | Add/correct | Request | Top 50 tabs Artists:  A B C D E F G H I J K L M N O P Q R S T U V W X Y Z 0-9

Heavenhell 1 Guitar Tabs – Madball

CD, Sheet music, Poster

Do you like Heavenhell 1? Share with your friends now
Bass TabsDrum TabsTabsTabs v2
     E   E      W                   W                   W                 
E||----------|-------------------|-------------------|-------------------|
B||----------|-------------------|-------------------|-------------------|
G||----------|-------------------|-------------------|-------------------|
D||----------|-------------------|-------------------|-------------------|
A||------xS--|--2----------------|--L----------------|--L----------------|
D||------xS--|--2----------------|--L----------------|--L----------------|


  H        E    E   Q        W                   W                 
--------------------------|-------------------|-------------------|
--------------------------|-------------------|-------------------|
--------------------------|-------------------|-------------------|
--------------------------|-------------------|-------------------|
--L--------2s--14\--2\----|--2----------------|--L----------------|
--L--------2s--14\--2\----|--2----------------|--L----------------|


  H        E.    E.   E      S S S S S S E  H         
--------------------------|--------------------------|
--------------------------|--------------------------|
--------------------------|--------------------------|
--------------------------|--------------------------|
--L--------2s---14\---2\--|--2-2-2-3-3-3-5-----------|
--L--------2s---14\---2\--|--2-2-2-3-3-3-5-----------|


         PM PM        PM PM PM PM PM PM            PM PM        PM PM        
  E  S S S  S  E  S S S  S  S  S  S  S     S S S S S  S  E  S S S  S  E  E   
----------------------------------------|-----------------------------------|
----------------------------------------|-----------------------------------|
----------------------------------------|-----------------------------------|
----------------------------------------|-----------------------------------|
--2--2-2-x--x--2--2-2-x--x--0--0--0--0--|--2-3-2-2-x--x--2--2-2-x--x--0--3--|
--2--2-2-0--0--2--2-2-0--0--0--0--0--0--|--2-3-2-2-0--0--2--2-2-0--0--0--3--|


         PM PM        PM PM PM PM PM PM  
  E  S S S  S  E  S S S  S  S  S  S  S   
----------------------------------------|
----------------------------------------|
----------------------------------------|
----------------------------------------|
--2--2-2-x--x--2--2-2-x--x--0--0--0--0--|
--2--2-2-0--0--2--2-2-0--0--0--0--0--0--|


  PM PM PM PM PM PM PM PM PM PM PM PM PM PM PM PM  
  S  S  S  S  S  S  S  S  S  S  S  S  S  S  S  S   
--------------------------------------------------|
--------------------------------------------------|
--------------------------------------------------|
--------------------------------------------------|
--2--2--2--3--3--3--5--5--5--3--3--3--5--5--3--3--|
--2--2--2--3--3--3--5--5--5--3--3--3--5--5--3--3--|


         PM PM        PM PM PM PM PM PM            PM PM        PM PM        
  E  S S S  S  E  S S S  S  S  S  S  S     S S S S S  S  E  S S S  S  E  E   
----------------------------------------|-----------------------------------|
----------------------------------------|-----------------------------------|
----------------------------------------|-----------------------------------|
----------------------------------------|-----------------------------------|
--2--2-2-x--x--2--2-2-x--x--0--0--0--0--|--2-3-2-2-x--x--2--2-2-x--x--0--3--|
--2--2-2-0--0--2--2-2-0--0--0--0--0--0--|--2-3-2-2-0--0--2--2-2-0--0--0--3--|


         PM PM        PM PM PM PM PM PM  
  E  S S S  S  E  S S S  S  S  S  S  S   
----------------------------------------|
----------------------------------------|
----------------------------------------|
----------------------------------------|
--2--2-2-x--x--2--2-2-x--x--0--0--0--0--|
--2--2-2-0--0--2--2-2-0--0--0--0--0--0--|


  PM PM PM PM PM PM PM PM PM PM PM PM PM PM PM PM                    PM PM  
  S  S  S  S  S  S  S  S  S  S  S  S  S  S  S  S     H.           E  S  S   
--------------------------------------------------|------------------------|
--------------------------------------------------|------------------------|
--------------------------------------------------|------------------------|
--------------------------------------------------|------------------------|
--2--2--2--3--3--3--5--5--5--3--3--3--5--5--3--3--|--2------------L--x--x--|
--2--2--2--3--3--3--5--5--5--3--3--3--5--5--3--3--|--2------------L--0--0--|


     PM    PM     PM    PM                          PM PM  
  E  S  E  S  S S S  E  S  E  E     H.           E  S  S   
---------------------------------|------------------------|
---------------------------------|------------------------|
---------------------------------|------------------------|
---------------------------------|------------------------|
--2--x--2--x--2-3-x--3--x--0--3--|--2------------L--x--x--|
--2--0--2--0--2-3-0--3--0--0--3--|--2------------L--0--0--|


     PM    PM     PM    PM                            PM PM  
  E  S  E  S  S S S  E  S  E  E     E  S H        E.  S  S   
---------------------------------|--------------------------|
---------------------------------|--------------------------|
---------------------------------|--------------------------|
---------------------------------|--------------------------|
--2--x--2--x--2-3-x--3--x--0--3--|--2--3-2--------L---x--x--|
--2--0--2--0--2-3-0--3--0--0--3--|--2--3-2--------L---0--0--|


     PM    PM     PM    PM                          PM PM  
  E  S  E  S  S S S  E  S  E  E     H.           E  S  S   
---------------------------------|------------------------|
---------------------------------|------------------------|
---------------------------------|------------------------|
---------------------------------|------------------------|
--2--x--2--x--2-3-x--3--x--0--3--|--2------------L--x--x--|
--2--0--2--0--2-3-0--3--0--0--3--|--2------------L--0--0--|


  PM PM PM PM PM PM PM PM PM PM PM PM          
  S  S  S  S  S  S  S  S  S  S  S  S  E   E    
----------------------------------------------|
----------------------------------------------|
----------------------------------------------|
----------------------------------------------|
--2--2--2--3--3--3--5--5--5--3--3--3--5s--3\--|
--2--2--2--3--3--3--5--5--5--3--3--3--5s--3\--|


         PM PM        PM PM PM PM PM PM            PM PM        PM PM        
  E  S S S  S  E  S S S  S  S  S  S  S     S S S S S  S  E  S S S  S  E  E   
----------------------------------------|-----------------------------------|
----------------------------------------|-----------------------------------|
----------------------------------------|-----------------------------------|
----------------------------------------|-----------------------------------|
--2--2-2-x--x--2--2-2-x--x--0--0--0--0--|--2-3-2-2-x--x--2--2-2-x--x--0--3--|
--2--2-2-0--0--2--2-2-0--0--0--0--0--0--|--2-3-2-2-0--0--2--2-2-0--0--0--3--|


         PM PM        PM PM PM PM PM PM  
  E  S S S  S  E  S S S  S  S  S  S  S   
----------------------------------------|
----------------------------------------|
----------------------------------------|
----------------------------------------|
--2--2-2-x--x--2--2-2-x--x--0--0--0--0--|
--2--2-2-0--0--2--2-2-0--0--0--0--0--0--|


  PM PM PM PM PM PM PM PM PM PM PM PM PM PM PM PM  
  S  S  S  S  S  S  S  S  S  S  S  S  S  S  S  S   
--------------------------------------------------|
--------------------------------------------------|
--------------------------------------------------|
--------------------------------------------------|
--2--2--2--3--3--3--5--5--5--3--3--3--5--5--3--3--|
--2--2--2--3--3--3--5--5--5--3--3--3--5--5--3--3--|


         PM PM        PM PM PM PM PM PM            PM PM        PM PM        
  E  S S S  S  E  S S S  S  S  S  S  S     S S S S S  S  E  S S S  S  E  E   
----------------------------------------|-----------------------------------|
----------------------------------------|-----------------------------------|
----------------------------------------|-----------------------------------|
----------------------------------------|-----------------------------------|
--2--2-2-x--x--2--2-2-x--x--0--0--0--0--|--2-3-2-2-x--x--2--2-2-x--x--0--3--|
--2--2-2-0--0--2--2-2-0--0--0--0--0--0--|--2-3-2-2-0--0--2--2-2-0--0--0--3--|


         PM PM        PM PM PM PM PM PM  
  E  S S S  S  E  S S S  S  S  S  S  S   
----------------------------------------|
----------------------------------------|
----------------------------------------|
----------------------------------------|
--2--2-2-x--x--2--2-2-x--x--0--0--0--0--|
--2--2-2-0--0--2--2-2-0--0--0--0--0--0--|


  PM PM PM PM PM PM PM PM PM PM PM PM PM PM PM PM  
  S  S  S  S  S  S  S  S  S  S  S  S  S  S  S  S   
--------------------------------------------------|
--------------------------------------------------|
--------------------------------------------------|
--------------------------------------------------|
--2--2--2--3--3--3--5--5--5--3--3--3--5--5--3--3--|
--2--2--2--3--3--3--5--5--5--3--3--3--5--5--3--3--|


     PM PM PM PM                       PM PM PM PM                  
  E  S  S  S  S  E.  S E  E  S S    E  S  S  S  S  E.  S E  E  S S  
---------------------------------|---------------------------------|
---------------------------------|---------------------------------|
---------------------------------|---------------------------------|
---------------------------------|---------------------------------|
--0--0--0--0--0--3---3-3--3--0-0-|--2--2--2--2--2--3---3-3--3--3-3-|
--0--0--0--0--0--3---3-3--3--0-0-|--2--2--2--2--2--3---3-3--3--3-3-|


     PM PM PM PM                    PM PM PM PM PM PM PM PM PM PM PM            
  E  S  S  S  S  E.  S E  E  S S    S  S  S  S  S  S  S  S  S  S  S  S S S S S  
---------------------------------|---------------------------------------------|
---------------------------------|---------------------------------------------|
---------------------------------|---------------------------------------------|
---------------------------------|---------------------------------------------|
--5--5--5--5--5--3---3-3--3--3-3-|--0--0--0--0--0--0--0--0--0--0--0--2-x-2-x-2-|
--5--5--5--5--5--3---3-3--3--3-3-|--0--0--0--0--0--0--0--0--0--0--0--2-x-2-x-2-|


     PM PM PM PM                       PM PM PM PM                  
  E  S  S  S  S  E.  S E  E  S S    E  S  S  S  S  E.  S E  E  S S  
---------------------------------|---------------------------------|
---------------------------------|---------------------------------|
---------------------------------|---------------------------------|
---------------------------------|---------------------------------|
--0--0--0--0--0--3---3-3--3--0-0-|--2--2--2--2--2--3---3-3--3--3-3-|
--0--0--0--0--0--3---3-3--3--0-0-|--2--2--2--2--2--3---3-3--3--3-3-|


     PM PM PM PM                                             
  E  S  S  S  S  E.  S E  E  S S    S S S S S S E  H         
---------------------------------|--------------------------|
---------------------------------|--------------------------|
---------------------------------|--------------------------|
---------------------------------|--------------------------|
--5--5--5--5--5--3---3-3--3--0-0-|--2-2-2-3-3-3-5-----------|
--5--5--5--5--5--3---3-3--3--0-0-|--2-2-2-3-3-3-5-----------|


                  PM PM       PM    PM     PM    PM        
  H.           E  S  S     E  S  E  S  S S S  E  S  E  E   
------------------------|---------------------------------|
------------------------|---------------------------------|
------------------------|---------------------------------|
------------------------|---------------------------------|
--2------------L--x--x--|--2--x--2--x--2-3-x--3--x--0--3--|
--2------------L--0--0--|--2--0--2--0--2-3-0--3--0--0--3--|


                  PM PM       PM    PM     PM    PM        
  H.           E  S  S     E  S  E  S  S S S  E  S  E  E   
------------------------|---------------------------------|
------------------------|---------------------------------|
------------------------|---------------------------------|
------------------------|---------------------------------|
--2------------L--x--x--|--2--x--2--x--2-3-x--3--x--0--3--|
--2------------L--0--0--|--2--0--2--0--2-3-0--3--0--0--3--|


                    PM PM       PM    PM     PM    PM        
  E  S H        E.  S  S     E  S  E  S  S S S  E  S  E  E   
--------------------------|---------------------------------|
--------------------------|---------------------------------|
--------------------------|---------------------------------|
--------------------------|---------------------------------|
--2--3-2--------L---x--x--|--2--x--2--x--2-3-x--3--x--0--3--|
--2--3-2--------L---0--0--|--2--0--2--0--2-3-0--3--0--0--3--|


                  PM PM    PM PM PM PM PM PM              
  H.           E  S  S     S  S  S  S  S  S  Q    Q.      
------------------------|--------------------------------|
------------------------|--------------------------------|
------------------------|--------------------------------|
------------------------|--------------------------------|
--2------------L--x--x--|--2--2--2--3--3--3--5----L------|
--2------------L--0--0--|--2--2--2--3--3--3--5----L------|


         PM PM        PM PM PM PM PM PM            PM PM        PM PM        
  E  S S S  S  E  S S S  S  S  S  S  S     S S S S S  S  E  S S S  S  E  E   
----------------------------------------|-----------------------------------|
----------------------------------------|-----------------------------------|
----------------------------------------|-----------------------------------|
----------------------------------------|-----------------------------------|
--2--2-2-x--x--2--2-2-x--x--0--0--0--0--|--2-3-2-2-x--x--2--2-2-x--x--0--3--|
--2--2-2-0--0--2--2-2-0--0--0--0--0--0--|--2-3-2-2-0--0--2--2-2-0--0--0--3--|


         PM PM        PM PM PM PM PM PM  
  E  S S S  S  E  S S S  S  S  S  S  S   
----------------------------------------|
----------------------------------------|
----------------------------------------|
----------------------------------------|
--2--2-2-x--x--2--2-2-x--x--0--0--0--0--|
--2--2-2-0--0--2--2-2-0--0--0--0--0--0--|


  PM PM PM PM PM PM PM PM PM PM PM PM PM PM PM PM  
  S  S  S  S  S  S  S  S  S  S  S  S  S  S  S  S   
--------------------------------------------------|
--------------------------------------------------|
--------------------------------------------------|
--------------------------------------------------|
--2--2--2--3--3--3--5--5--5--3--3--3--5--5--3--3--|
--2--2--2--3--3--3--5--5--5--3--3--3--5--5--3--3--|


         PM PM        PM PM PM PM PM PM            PM PM        PM PM        
  E  S S S  S  E  S S S  S  S  S  S  S     S S S S S  S  E  S S S  S  E  E   
----------------------------------------|-----------------------------------|
----------------------------------------|-----------------------------------|
----------------------------------------|-----------------------------------|
----------------------------------------|-----------------------------------|
--2--2-2-x--x--2--2-2-x--x--0--0--0--0--|--2-3-2-2-x--x--2--2-2-x--x--0--3--|
--2--2-2-0--0--2--2-2-0--0--0--0--0--0--|--2-3-2-2-0--0--2--2-2-0--0--0--3--|


         PM PM        PM PM PM PM PM PM  
  E  S S S  S  E  S S S  S  S  S  S  S   
----------------------------------------|
----------------------------------------|
----------------------------------------|
----------------------------------------|
--2--2-2-x--x--2--2-2-x--x--0--0--0--0--|
--2--2-2-0--0--2--2-2-0--0--0--0--0--0--|


  PM PM PM PM PM PM PM PM PM PM PM PM PM PM PM PM  
  S  S  S  S  S  S  S  S  S  S  S  S  S  S  S  S   
--------------------------------------------------|
--------------------------------------------------|
--------------------------------------------------|
--------------------------------------------------|
--2--2--2--3--3--3--5--5--5--3--3--3--5--5--3--3--|
--2--2--2--3--3--3--5--5--5--3--3--3--5--5--3--3--|


     PM PM PM PM                       PM PM PM PM                  
  E  S  S  S  S  E.  S E  E  S S    E  S  S  S  S  E.  S E  E  S S  
---------------------------------|---------------------------------|
---------------------------------|---------------------------------|
---------------------------------|---------------------------------|
---------------------------------|---------------------------------|
--0--0--0--0--0--3---3-3--3--0-0-|--2--2--2--2--2--3---3-3--3--3-3-|
--0--0--0--0--0--3---3-3--3--0-0-|--2--2--2--2--2--3---3-3--3--3-3-|


     PM PM PM PM                    PM PM PM PM PM PM PM PM PM PM PM            
  E  S  S  S  S  E.  S E  E  S S    S  S  S  S  S  S  S  S  S  S  S  S S S S S  
---------------------------------|---------------------------------------------|
---------------------------------|---------------------------------------------|
---------------------------------|---------------------------------------------|
---------------------------------|---------------------------------------------|
--5--5--5--5--5--3---3-3--3--3-3-|--0--0--0--0--0--0--0--0--0--0--0--2-x-2-x-2-|
--5--5--5--5--5--3---3-3--3--3-3-|--0--0--0--0--0--0--0--0--0--0--0--2-x-2-x-2-|


     PM PM PM PM                       PM PM PM PM                  
  E  S  S  S  S  E.  S E  E  S S    E  S  S  S  S  E.  S E  E  S S  
---------------------------------|---------------------------------|
---------------------------------|---------------------------------|
---------------------------------|---------------------------------|
---------------------------------|---------------------------------|
--0--0--0--0--0--3---3-3--3--0-0-|--2--2--2--2--2--3---3-3--3--3-3-|
--0--0--0--0--0--3---3-3--3--0-0-|--2--2--2--2--2--3---3-3--3--3-3-|


     PM PM PM PM                                             
  E  S  S  S  S  E.  S E  E  S S    S S S S S S E  H         
---------------------------------|--------------------------|
---------------------------------|--------------------------|
---------------------------------|--------------------------|
---------------------------------|--------------------------|
--5--5--5--5--5--3---3-3--3--0-0-|--2-2-2-3-3-3-5--L--------|
--5--5--5--5--5--3---3-3--3--0-0-|--2-2-2-3-3-3-5--L--------|


  W                   W                   H.            Q      
-------------------|-------------------|----------------------|
-------------------|-------------------|----------------------|
-------------------|-------------------|----------------------|
-------------------|-------------------|----------------------|
--L----------------|--L----------------|--5\------------0\----|
--L----------------|--L----------------|--5\------------0\----|


  Q    E  E  E  E  E  E     E  E  E  E  E  E  E  E     Q    E  E  E  E  E  E   
-------------------------|--------------------------|-------------------------|
-------------------------|--------------------------|-------------------------|
-------------------------|--------------------------|-------------------------|
-------------------------|--------------------------|-------------------------|
--2----0--2--0--2--3--0--|--0--2--0--2--0--2--3--3--|--2----0--2--0--2--3--0--|
--2----0--2--0--2--3--0--|--0--2--0--2--0--2--3--3--|--2----0--2--0--2--3--0--|


  E  E  E  E  E  E  E  E     Q     E  E  E  E  E  E   
--------------------------|--------------------------|
--------------------------|--------------------------|
--------------------------|--------------------------|
--------------------------|--------------------------|
--0--0--5--5--0--6--6--0--|--6\----2--2--0--2--3--0--|
--0--0--5--5--0--6--6--0--|--6\----2--2--0--2--3--0--|


  E  E  E  E  E  E  E  E     Q    E  E  E  E  E  E     E  E  E  E  E  E  E  E   
--------------------------|-------------------------|--------------------------|
--------------------------|-------------------------|--------------------------|
--------------------------|-------------------------|--------------------------|
--------------------------|-------------------------|--------------------------|
--0--2--0--2--0--2--3--3--|--2----0--2--0--2--3--0--|--0--0--5--5--0--6--6--0--|
--0--2--0--2--0--2--3--3--|--2----0--2--0--2--3--0--|--0--0--5--5--0--6--6--0--|


  Q     E  E  E  E  E  E     E  E  E  E  E  E  E  E     Q    E  E  E  E  E  E   
--------------------------|--------------------------|-------------------------|
--------------------------|--------------------------|-------------------------|
--------------------------|--------------------------|-------------------------|
--------------------------|--------------------------|-------------------------|
--6\----2--2--0--2--3--0--|--0--2--0--2--0--2--3--3--|--2----0--2--0--2--3--0--|
--6\----2--2--0--2--3--0--|--0--2--0--2--0--2--3--3--|--2----0--2--0--2--3--0--|


  E  E  E  E  E  E  E  E     Q     E  E  E  E  E  E   
--------------------------|--------------------------|
--------------------------|--------------------------|
--------------------------|--------------------------|
--------------------------|--------------------------|
--0--0--5--5--0--6--6--0--|--6\----2--2--0--2--3--0--|
--0--0--5--5--0--6--6--0--|--6\----2--2--0--2--3--0--|


  E  E  E  E  E  E  E  E     Q    E  E  E  E  E  E     E  E  E  E  E  E  E  E   
--------------------------|-------------------------|--------------------------|
--------------------------|-------------------------|--------------------------|
--------------------------|-------------------------|--------------------------|
--------------------------|-------------------------|--------------------------|
--0--2--0--2--0--2--3--3--|--2----0--2--0--2--3--0--|--0--0--5--5--0--6--6--0--|
--0--2--0--2--0--2--3--3--|--2----0--2--0--2--3--0--|--0--0--5--5--0--6--6--0--|


  Q    Q       
-------------||
-------------||
-------------||
-------------||
--6----L\----||
--6----L\----||




Duration Legend
---------------
W - whole
H - half
Q - quarter
E - 8th
S - 16th
T - 32nd
X - 64th
. - note dotted
|-n-|  - n-tuplets


Tablature Legend
----------------
L - tied note
x - dead note
g - grace note
(n) - ghost note
> - accentuded note
NH - natural harmonic
AH - artificial harmonic
TH - tapped harmonic
SH - semi harmonic
PH - pitch harmonic
h - hammer on
p - pull off
b - bend
br - bendRelease
pb - preBend
pbr - preBendRelease
brb - bendReleaseBend
\n/ - tremolo bar dip
\n - tremolo bar dive
-/n - tremolo bar Release up
/n\ - tremolo bar inverted dip
/n - tremolo bar return
-\n - tremolo bar Release down
S - shift slide
s - legato slide
/ -  slide into from below or out of upwards
\ -  slide into from above or out of downwards
~ - vibrato
W - wide vibrato
tr - trill
TP - tremolo picking
T - tapping
S - slap
P - pop
< - fade in
^ - brush up
v - brush down





Comments


Popular Madball tabs & chords
Pride Bass Tabs
Streets Of Hate 1 Bass Tabs
The Blame Bass Tabs
All Or Nothing Tabs
Can't Stop, Won't Stop Tabs
New York City 1 Tabs
Para Mi Gente Tabs
Pride 2 Tabs
Set It Off Tabs
Violence In Our Minds Tabs


Song lyrics



↑ Back to top | Tablatures and chords are parodies/interpretations of the original songs. You may use it for private study, scholarship, research or language learning purposes only
© 2014 AZChords.com Contact us | Privacy policy | DMCA | Add/correct tabs | Request tabs | Top 50 tabs